Ash - Shining Light Chords & Tabs

 

Shining Light Chords & Tabs

Ash Chords & Tabs

Version: 6 Type: Tab 0 ratings
1 star 2 stars 3 stars 4 stars 5 stars
comments

Shining Light Tab

   
A realy cool song from ASH!!
This tab is really close to the way ASH play it If not exactly!


Cappo 7

Intro
G C G em C G (x2)
[ Tab from: http://www.guitartabs.cc/tabs/a/ash/shining_light_tab_ver_6.html ]
     G            C         G            em           C       G
e----3--3--3--3-------------3-3-------------------------------3--3-|
b-----------------1--3--1-----------------------------1-1-1--------|
g------------------------------------------------------------------|
d-----------------2--2--2----------------2--2--2--2---2-2-2--------|
a----2--2--2--2---3--3--3---2-2---0--0---2--2--2--2---3-3-3---2--2-|
E-3--3--3--3--3-------------3-3---2--2------------------------3--3-|


Repeat that for the whole verse

At the end of verse it goes:

   em        C      G
e-------------------3-|
b------------1--1-----|
g---------------------|
d--2--2--2---2--2-----|
a--2--2--2---3--3---2-|
E-------------------3-|


The chords for the chorus are:

G---bm---f#m---C---bm---C---D

And then back to the verse - Simple!!
Comments