Ash - Shining Light Chords & Tabs

 

Shining Light Chords & Tabs

Ash Chords & Tabs

Version: 10 Type: Tab 0 ratings
1 star 2 stars 3 stars 4 stars 5 stars
comments

Shining Light Tab

This is only the tab and the power cords of which ash use.

It sounds alot like it. if you play it along with the song on cd or whatever it sounds the same.
Enjoy!

Standard Tuning

Intro:

e[-----------------|-------------|-------------------------] 
b[-----------------|-------------|-------------12-12-12h10-] 
g[-----11-11----11-|-12-13-12-11-|-11-9-11-7-7-------------] 
d[-----------12----|-------------|-------------------------] X2
a[-----------------|-------------|-------------------------] 
E[--10-------------|-------------|-------------------------]

Then

[-------------]
[-7-7---------]
[-----7-9-9-7-]
[-------------]
[-------------]
[-------------]

"we made a connection..."
[ Tab from: http://www.guitartabs.cc/tabs/a/ash/shining_light_tab_ver_10.html ]
[-----------------|-12-12-12-12-12-------|-12-12-12-12-12-------|-----------------]
[-10-10-10-7-8-10-|---------------7-8-10-|---------------7-8-10-|-10-10-10-10-7-5-]
[-----------------|----------------------|----------------------|-----------------]
[-----------------|----------------------|----------------------|-----------------]
[-----------------|----------------------|----------------------|-----------------]
[-----------------|----------------------|----------------------|-----------------]

Just repeat the tab all over again and that's it. if you know the song or play along with it 

the tab will be much easier to play.

If you have any problems with the tab, you can contact me through my e-mail: I_Evil@hotmail.com 

Enjoy!

(looking for bassist, drummer and extra guitaist for punk/rock/metal band. If interested plz e-mail me)
Comments