Ash - Shining Light Chords & Tabs

 

Shining Light Chords & Tabs

Ash Chords & Tabs

Version: 1 Type: Bass Tab 0 ratings
1 star 2 stars 3 stars 4 stars 5 stars
comments

Shining Light Bass Tab

   
Ash:Shining light
Tabbed by Glynny

VERSE      
  G         C         D                            
g--------------------------------
d--------------------------------
a-----------3-3-3-3-3-5--5--5--5-
e-3-3-3-3-3----------------------

  E    C         B          G
g---------------------------------
d---------------------------------
a-7----3---3-----2--2-------------
e------------------------3--------

 G
g---------------------------------
d---------------------------------
a---------------------------------
e-3--3-3--3-3--3-3--3-3-3---------
[ Tab from: http://www.guitartabs.cc/tabs/a/ash/shining_light_btab.html ]
CHORUS
  D            C          B           G         X2
g-------------------------------------------------
d-------------------------------------------------
a-5-5-5-5-5-5-3-3-3-3-3-3-2-2-2-2-2-2-------------
e-------------------------------------3-3-3-3-3-3-
 E           D           B           G
g-------------------------------------------------
d-------------------------------------------------
a-7-7-7-7-7-7-5-5-5-5-5-5-2-2-2-2-2-2-------------
e-------------------------------------3-3-3-3-3-3-
       C         B       G     X2
g--------------------------------
d--------------------------------
a------3-----3---2---2-----------
e------------------------3-------
 G
g--------------------------------
d--------------------------------
a--------------------------------
e-3--3-3--3-3--3-3--3-3-3--------

BRIDGE
  B     E       B     E
g---------------------------------
d---------------------------------
a-2-2-2/7-7-7---2-2-2/7-7-7--etc--
e---------------------------------

Then there's a load of sliding and bending on the top 2 strings

KEY-CHANGE CHORUS   
  E           D           C#          A         X2
g-------------------------------------------------
d-------------------------------------------------
a-7-7-7-7-7-7-5-5-5-5-5-5-4-4-4-4-4-4-------------
e-------------------------------------5-5-5-5-5-5-
  F#          E           C#          A
g-------------------------------------------------
d-------------------------------------------------
a-9-9-9-9-9-9-7-7-7-7-7-7-4-4-4-4-4-4-------------
e-------------------------------------5-5-5-5-5-5-
       C#        D        A     X3
g---------------------------------
d---------------------------------
a------4---4-----5--5-------------
e-------------------------5-------


VERSE             X4
CHORUS            X2
VERSE             X2
CHORUS            X2
BRIDGE 
KEY-CHANGE CHORUS X2

THATS ABOUT IT

Comments