Ash - Renegade Cavalcade Chords & Tabs

 

Renegade Cavalcade Chords & Tabs

Ash Chords & Tabs

Version: 2 Type: Tab 0 ratings
1 star 2 stars 3 stars 4 stars 5 stars
comments

Renegade Cavalcade Tab

   
Ash- Renegade cavalcade
Tabbed by H.T, UK

This is a great song!

Intro:

Guitar 1 (Palm mute slightly)

E-------------------------------|
B-------------------------------|
G---7---7---7-----9-----7---7---| (x2)
D-9---9---9---9-----------------|
A---------------7---7-5---------|
E-------------------------9---7-|

Verse 1:

Guitar 1

E-------------------------------|
B-------------------------------|
G---7---7---7-----9-----7---7---| (x4)
D-9---9---9---9-----------------|
A---------------7---7-5---------|
E-------------------------9---7-|

Then Guitar 2 enters:

E----------------------------|
B-----------------------10---| (Both guitars play their riffs x4)
G---11---11---11---12------9-|
D-9----9----9----9----9------|
A----------------------------|
E----------------------------|

Then:

E-----------|
B-----------|
G-9999-7777-|
D-9999-7777-|
A-7777-5555-|
E-----------|


Chorus:

E--------------------------------------------------|
B-7-77-8-88---------------7-77-8-88----------------|
G-7-77-9-99--------- (x2)-7-77-9-99-11-11-11-12-14-|
D-7-77-9-99-999-5-7-------7-77-9-99-11-11-11-12-14-|
A-5-55-7-77-999-5-7-------5-55-7-77--9--9--9-10-12-|
E-----------777-3-5--------------------------------|

E-------------------|
B-7-77-8-88---------|
G-7-77-9-99---------|
D-7-77-9-99-999-5-7-|
A-5-55-7-77-999-5-7-|
E-----------777-3-5-|

Between chorus and verse 2(not sure about this):

E-------------------------|
B-------------------------|
G---7-----7---6-7-7-6-7-7-| (x2)
D-5---5-------------------|
A-------7---7-------------|
E-------------------------|

Verse 2 (as verse 1)

After 2nd chorus:

Guitar 1:
[ Tab from: http://www.guitartabs.cc/tabs/a/ash/renegade_cavalcade_tab_ver_2.html ]
E---------------------------------------------------|
B------------------------------------------99-77777-|
G------------777-------------------------7-99-77777-| (x2)
D-555-222-77-777-555-222-77777777-99-7-9-7-99-77777-|
A-555-222-77-555-555-222-77777777-99-7-9-5-77-55555-|
E-333-000-55-----333-000-55555555-77-5-7------------|

Guitar 2 Solo (Guitar 1 continues to play riff above):

E--------------------------------------------|
B--------------------------------------------|
G-11\-/11-11-11-11-/13-13-13-13-/14-14-14-14-| (x2)
D--------------------------------------------|
A--------------------------------------------|
E--------------------------------------------|

E--------------------------------------------------------------------|
B--------------------------------------------------------15-15-15-15-|
G-/16-16-16-16-16-/16-16-16-16-16-16-/16-16-16-16-16-/16-16-16-16-16-|
D--------------------------------------------------------------------|
A--------------------------------------------------------------------|
E--------------------------------------------------------------------|

E----------------------------------------------------------------|
B-/15-15-15-15-15-^15-15-15-15-15-15-15-15-15-15-15-15-15-15-15\-|
G-/16-16-16-16-16-^16-16-16-16-16-16-16-16-16-16-16-16-16-16-16\-|
D----------------------------------------------------------------|
A----------------------------------------------------------------|
E----------------------------------------------------------------|

Play verse riffs for both guitars twice then:

E-----------|
B-----------|
G-9999-7777-|
D-9999-7777-|
A-7777-5555-|
E-----------|

Play chorus again then:

E--------------------------------------------------------|
B-----------------------------------------------99-77777-|
G------------777-(x3)-------------------------7-99-77777-|
D-555-222-77-777------555-222-77777777-99-7-9-7-99-77777-|
A-555-222-77-555------555-222-77777777-99-7-9-5-77-55555-|
E-333-000-55----------333-000-55555555-77-5-7------------|
Comments