Ash - Renegade Cavalcade Chords & Tabs

 

Renegade Cavalcade Chords & Tabs

Ash Chords & Tabs

Version: 1 Type: Tab 0 ratings
1 star 2 stars 3 stars 4 stars 5 stars
comments

Renegade Cavalcade Tab

   
-------------------------------------------------------------------------------
			     Renegade Cavalcade - Ash
-------------------------------------------------------------------------------
Tabbed by: PaddY F
Email: n/a

Tuning: Standard with Capo on 7th Fret

Play this several times palm muted...
[ Tab from: http://www.guitartabs.cc/tabs/a/ash/renegade_cavalcade_tab.html ]
    Em              Am      G   F#
e|---------------------------------------------------------------------------|
B|---------------------------------------------------------------------------|
G|-----0---0---0--------2-----0---0------------------------------------------|
D|-------2---2---2--------2--------------------------------------------------|
A|--2----------------0-------------------------------------------------------|
E|--------------------------3---2---0----------------------------------------|


Chorus:

G Am Em C D  x 2

G Am b/c C D x 2

C b/c D G F# x 2

How to play chords:

Em  022000
Am  x02210
G   320003
F#  2xxxxx
C   x32010
D   xx0232
b/c x20010

NOTE: this is tims part, charlottes would be the same but without a capo.
Comments