Ash - Renegade Cavalcade Chords & Tabs

 

Renegade Cavalcade Chords & Tabs

Ash Chords & Tabs

Version: 1 Type: Bass Tab 0 ratings
1 star 2 stars 3 stars 4 stars 5 stars
comments

Renegade Cavalcade Bass Tab

Song: Renegade Cavalcade
Artist: Ash
Tabber: Zeidrich

Couldn't find a tab for this song so i decided to work it out
and tab it.

Some palm muted guitar then...

Verse: Listen for the timing

G|----------------------------|
D|----------------------------|
A|----------------7--5-7-4-5--| x3
E|--7--5-7-5------------------|

G|----------------------------|
D|----------------------------|
A|------------7-7-7-7-5-5-5/--|
E|--7---5-7-5-----------------|

Chorus:

G|---------------------------------|
D|---------------------------------|
A|-5-5-5-5---------2-2-2-2---------| x2
E|---------0-0-0-0---------3-3-5-5-|

G|---------------------------------|
D|---------------------------------|
A|-5-5-5-5-------------------------|
E|---------0-0-0-0-2-2-2-2-3-3-5-5-|

G|---------------------------------|
D|---------------------------------|
A|-5-5-5-5---------2-2-2-2---------|
E|---------0-0-0-0---------3-3-5-5-|

Bridge:

G|---------------------------------|
D|---------------------------------|
A|-----------------7-7-7-7-5-5-4-4-|
E|-7-7-7-7-5-5-5-5-----------------|

G|---------------------------------|
D|---------------------------------|
A|---------9-9-9-9-7-7-7-7-5-5-4-4-|
E|-7-7-7-7-------------------------|

Verse: Rest, then

G|--------------------------|
D|--------------------------|
A|-------------7---5-7-4-5--| x3
E|--7--5-7-5----------------|

G|---------------------------|
D|---------------------------|
A|-----------7-7-7-7-5-5-5-5-|
E|--7--5-7-5-----------------|

Chorus:

G|---------------------------------|
D|---------------------------------|
A|-5-5-5-5---------2-2-2-2---------| x2
E|---------0-0-0-0---------3-3-5-5-|

G|---------------------------------|
D|---------------------------------|
A|-5-5-5-5-------------------------|
E|---------0-0-0-0-2-2-2-2-3-3-5-5-|

G|---------------------------------|
D|---------------------------------|
A|-5-5-5-5---------2-2-2-2---------|
E|---------0-0-0-0---------3-3-5-5-|

Bridge 2:
[ Tab from: http://www.guitartabs.cc/tabs/a/ash/renegade_cavalcade_btab.html ]
G|---------------------------------|
D|---------------------------------|
A|-2-2-2-2-----------------5-5-4-0-|
E|---------0-0-0-0-5-5-5-5---------|

G|----------------------------------|
D|-------------------------77777777-|
A|-2-2-2-2--------------------------|
E|---------0-0-0-0-5-5-5-5----------|

Solo:

G|--------------------------------|
D|--------------------------------|
A|-------5-5-55-777-7-77-555-5-55-| x2
E|-7-5-7--------------------------|

G|--------------------------------|
D|--------------------------------|
A|-------5-5-55-777-5-0-555-2-0---|
E|-7-5-7--------------------------|

G|--------------------------------|
D|--------------------------------|
A|-------5-5-55-777-7-77-555-5-55-| x3
E|-7-5-7--------------------------|

Verse:

G|-----------------------------|
D|-----------------------------|
A|-----------------7--5-7-4-5--|
E|-------5-7-5-----------------|

G|---------------------------|
D|---------------------------|
A|---------------7--5-7-4-5--| x2
E|--7--5-7-5-----------------|

G|----------------------------|
D|----------------------------|
A|------------7-7-7-7-5-5-5-5-|
E|--7---5-7-5-----------------|

Chorus:

G|---------------------------------|
D|---------------------------------|
A|-5-5-5-5---------2-2-2-2---------| x4
E|---------0-0-0-0---------3-3-5-5-|

G|---------------------------------|
D|---------------------------------|
A|-5-5-5-5-------------------------|
E|---------0-0-0-0-2-2-2-2-3-3-5-5-|

G|---------------------------------|
D|---------------------------------|
A|-5-5-5-5---------2-2-2-2---------|
E|---------0-0-0-0---------3-3-5-5-|

Bridge:

G|---------------------------------|
D|---------------------------------|
A|-2-2-2-2-7-7-7-7---------5-5-4-0-| x 3
E|-----------------5-5-5-5---------|

G|----------------------------------|
D|-------------------------77777777-|
A|-2-2-2-2--------------------------|
E|---------0-0-0-0-5-5-5-5----------|

Outro:

G|--------------------------------|
D|--------------------------------|
A|-------5-5-55-777-7-77-555-5-55-|
E|-7-5-7--------------------------|

Any comments/feedback welcome
Comments