Ash - Orpheus Chords & Tabs

 

Orpheus Chords & Tabs

Ash Chords & Tabs

Version: 2 Type: Tab 0 ratings
1 star 2 stars 3 stars 4 stars 5 stars
comments

Orpheus Tab

   
-------------------------------------------------------------------------------
			         Ash- Orpheus
-------------------------------------------------------------------------------
Tabbed by: Jammy D
Email: jam_in_the_box@hotmail.com

Tuning: standard

Intro:

e|-------------------------------------------------------------------------------|
B|-------------------------------------------------------------------------------|
G|--9-9-7-7-9-9-7-7-9-7-9-9-7-7-9---9-9-7-7--------------------------------------|
D|--9-9-7-7-9-9-7-7-9-7-9-9-7-7-9---9-9-7-7-9-9-7-7------------------------------|
A|--7-7-5-5-7-7-5-5-7-5-7-7-5-5-7---7-7-5-5-9-9-7-7-------(x4)-------------------|
E|------------------------------------------7-7-5-5------------------------------|


e|-------------------------------------------------------------------------------|
B|-------------------------------------------------------------------------------|
G|-9----9--9-7---9--9-----12--11--9----------------------------------------------|
D|-9----9--9-7---9--9-----12--11--9-----(x2)-------------------------------------|
A|-7----7--7-5---7--7-----10--9---7----------------------------------------------|
E|-------------------------------------------------------------------------------|
Verse 1:
   E5                                   A5
e|-------------------------------------------------------------------------------|
B|-------------------------------------------------------------------------------|
G|-9-------------------------------------------------------------6-6-6-6---------|
D|-9------------------------------------7---7-7--------7---7-7-7-7-7-7-7---------|
A|-7------------------------------------7---7-7--------7---7-7-7-7-7-7-7---------|
E|--------------------------------------5---5-5--------5---5-5-5-5-5-5-5---------|
That summer I did nothiiiiiiiiiinnnnnnn...

e|----------------------------------|-------------------------------------------|
B|-------------------------8-8-8-8--|-------------------------------------------|
G|-9---9-9-------9---9-9-9-9-9-9-9--|--------------------------6-6-6-6----------|
D|-9---9-9-------9---9-9-9-9-9-9-9--|--7---7-7-------7---7-7-7-7-7-7-7----------|
A|-7---7-7-------7---7-7-7-7-7-7-7--|--7---7-7-------7---7-7-7-7-7-7-7----------|
E|----------------------------------|--5---5-5-------5---5-5-5-5-5-5-5----------|

Play verse 1 chords twice then into chorus,

Chorus:

           C#m             B
I need the sunshine in the morning
    A
I'm heading for the open road
C#m             B
Sunshine in the morning
F#m
Lord you gotta let it flow


Middle Bit:

e|-------------------|
B|-------------------|
G|-------------------|
D|--5---3---2-2------|
A|--5---3---2-2------|
E|--3---2---0-0------|
[ Tab from: http://www.guitartabs.cc/tabs/a/ash/orpheus_tab_ver_2.html ]
e|-------------------------------------------------------------------------------|
B|-------------------------------------------------------------------------------|
G|-9----9--9-7---9--9-----12--11--9----------------------------------------------|
D|-9----9--9-7---9--9-----12--11--9-----(x2)-------------------------------------|
A|-7----7--7-5---7--7-----10--9---7----------------------------------------------|
E|-------------------------------------------------------------------------------|

Verse 2: Same chords as verse 1
Chorus again

Middle Bit (slightly different):

e|-------------------|
B|-------------------|
G|-------------------|
D|--5---3---2-2------|
A|--5---3---2-2------|
E|--3---2---0-0------|


e|-----------------------------------------------------------------------------|
B|-----------------------------------------------------------------------------|
G|-9----9--9-7---9--9-----12--11--9-(12)---------------------------------------|
D|-9----9--9-7---9--9-----12--11--9-(12)---------------------------------------|
A|-7----7--7-5---7--7-----10--9---7-(10)---------------------------------------|
E|-----------------------------------------------------------------------------|

This bit is played slighty muted with the fingertips:

e|-------------------------------------------------------------------------------|
B|-------------------------------------------------------------------------------|
G|-------------------------------------------------------------------------------|
D|-------------------------------------------------------------------------------|
A|--7-7-5-5-7-7-5-5-7-5-7-7-5-5-7---7-7-5-5------------(X10)---------------------|
E|------------------------------------------7-7-5-5------------------------------|
After first 2 times he sings; "Im headin for the open road" (x8)

"GO!"

e|-------------------------------------------------------------------------------|
B|-------------------------------------------------------------------------------|
G|--9-9-7-7-9-9-7-7-9-7-9-9-7-7-9---9-9-7-7--------------------------------------|
D|--9-9-7-7-9-9-7-7-9-7-9-9-7-7-9---9-9-7-7-9-9-7-7------------------------------|
A|--7-7-5-5-7-7-5-5-7-5-7-7-5-5-7---7-7-5-5-9-9-7-7-------(x2)-------------------|
E|------------------------------------------7-7-5-5------------------------------|

Pre Chorus:
   F#m
It hit me without warning
      C#m            B
I was left out on my own
    F#m
The sad times they were forming
  C#m                B
I went through them alone

  A
A new day it is dawning
  C#m              B
I feel the pain is gone
    A
The open world is calling
    A
And I am moving onnnnn...


Repeat chorus:

End on:

e|-------------------------|
B|-------------------------|
G|--9-9-7-7-9-9-7-7-9-7-9--|
D|--9-9-7-7-9-9-7-7-9-7-9--|
A|--7-7-5-5-7-7-5-5-7-5-7--|
E|-------------------------|

This me first real tab so any comment are appreciated.  This is a wicked tune, Good to
Ash back with avengence!!!!! Jammy D

| () Let Ring
| /  slide up
| \  slide down
| h  hammer-on
| p  pull-off
| x  Mute note
===============================================================================
Comments