Ash - No Place To Hide Chords & Tabs

 

No Place To Hide Chords & Tabs

Ash Chords & Tabs

Version: 1 Type: Tab 0 ratings
1 star 2 stars 3 stars 4 stars 5 stars
comments

No Place To Hide Tab

NO PLACE TO HIDE BY ASH

TABBED BY RUAIRI COLEMAN

This song is the first song on the Cosmic Dedris CD (the CD that 
comes with Intergalantic Sonic Seven's) Its a easy song to play. 
Haven't got the second guitar fully tabs but its on its way

  Verus
 e|---------------------------------------------------|
 B|---------------------------------------------------|
 G|---------------------------------------------------|
 D|-5--5--5--5--5--5--5--5--5--5--5--5----------------|\
 A|-5--5--5--5--5--5--5--5--5--5--5--5----------------| \
 E|-3--3--3--3--3--3--3--3--3--3--3--3----------------|  \
   In the end it all comes down to dust                   \Play x2
 							  /Then Lyrics
 e|---------------------------------------------------|  /kick In
 B|---------------------------------------------------| /
 G|-5--5--5--5--5--5--5--5--5--5--5--5----------------|/
 D|-5--5--5--5--5--5--5--5--5--5--5--5----------------|
 A|-3--3--3--3--3--3--3--3--3--3--3--3----------------|
 E|---------------------------------------------------|
   Language will vanish and machines will rust

 e|----------------------------------------------------------|
 B|----------------------------------------------------------|
 G|----------------------------------------------------------|
 D|-5--5--5--5--5--5--5--5--5--5--5--5-----------------------|
 A|-5--5--5--5--5--5--5--5--5--5--5--5-----------------------|
 E|-3--3--3--3--3--3--3--3--3--3--3--3-----------------------|
   Reality will come apart at the seams

 e|----------------------------------------------------------|
 B|----------------------------------------------------------|
 G|-5--5--5--5--5--5--5--5--5--5--5--5-----------------------|
 D|-5--5--5--5--5--5--5--5--5--5--5--5-----------------------|
 A|-3--3--3--3--3--3--3--3--3--3--3--3-----------------------|
 E|----------------------------------------------------------|
   Your life will unravel into your dreams

 Pre-Chorus 1
 e|----------------------------------------------------------|
 B|----------------------------------------------------------|
 G|-----------------------------5--5--5----------------------|
 D|--5---5---5---2---2---2------5--5--5---13--13--13---------|
 A|--5---5---5---2---2---2------3--3--3---13--13--13---------|
 E|--3---3---3---0---0---0----------------11--11--11---------|Play x2
   Now a storm it is gathering 	Reasons unravelling
   Streets they are burning     And darkness is travelling

 e|----------------------------------------------------------|
 B|----------------------------------------------------------|
 G|--------------------------------5--5--5---8--8--8---------|
 D|--5---5---5---10---10---10------5--5--5---8--8--8---------|
 A|--5---5---5---10---10---10------3--3--3---6--6--6---------|
 E|--3---3---3---8----8----8---------------------------------|Play x2
         Raw electricity          Runs through the cities
       And now is it time         To be running to me

 e|----------------------------------------------------------|
 B|----------------------------------------------------------|
 G|----------------------------------------------------------|
 D|-5--5--5--5--5--5--5--5--5--5--5--5-----------------------|
 A|-5--5--5--5--5--5--5--5--5--5--5--5-----------------------|
 E|-3--3--3--3--3--3--3--3--3--3--3--3-----------------------|

 e|----------------------------------------------------------|
 B|----------------------------------------------------------|
 G|-5--5--5--5--5--5--5--5--5--5--5--5-----------------------|
 D|-5--5--5--5--5--5--5--5--5--5--5--5-----------------------|
 A|-3--3--3--3--3--3--3--3--3--3--3--3-----------------------|
 E|----------------------------------------------------------|

  Verus
 e|----------------------------------------------------------|
 B|----------------------------------------------------------|
 G|----------------------------------------------------------|
 D|-5--5--5--5--5--5--5--5--5--5--5--5-----------------------|
 A|-5--5--5--5--5--5--5--5--5--5--5--5-----------------------|
 E|-3--3--3--3--3--3--3--3--3--3--3--3-----------------------|
   Nowhere to run to and no place to hide

 e|----------------------------------------------------------|
 B|----------------------------------------------------------|
 G|-5--5--5--5--5--5--5--5--5--5--5--5-----------------------|
 D|-5--5--5--5--5--5--5--5--5--5--5--5-----------------------|
 A|-3--3--3--3--3--3--3--3--3--3--3--3-----------------------|
 E|----------------------------------------------------------|
   Make a final promise and I'll make you mine

 e|----------------------------------------------------------|
 B|----------------------------------------------------------|
 G|----------------------------------------------------------|
 D|-5--5--5--5--5--5--5--5--5--5--5--5-----------------------|
 A|-5--5--5--5--5--5--5--5--5--5--5--5-----------------------|
 E|-3--3--3--3--3--3--3--3--3--3--3--3-----------------------|
   We'll burn with raw emotion as the flames arise

 e|----------------------------------------------------------|
 B|----------------------------------------------------------|
 G|-5--5--5--5--5--5--5--5--5--5--5--5-----------------------|
 D|-5--5--5--5--5--5--5--5--5--5--5--5-----------------------|
 A|-3--3--3--3--3--3--3--3--3--3--3--3-----------------------|
 E|----------------------------------------------------------|
   Higher and higher in the western night

 Pre-Chorus 1
 e|----------------------------------------------------------|
 B|----------------------------------------------------------|
 G|-----------------------------5--5--5----------------------|
 D|--5---5---5---2---2---2------5--5--5---13--13--13---------|
 A|--5---5---5---2---2---2------3--3--3---13--13--13---------|
 E|--3---3---3---0---0---0----------------11--11--11---------|Play x2
   Now a storm it is gathering 	Reasons unravelling
   Streets they are burning     And darkness is travelling

 e|----------------------------------------------------------|
 B|----------------------------------------------------------|
 G|--------------------------------5--5--5---8--8--8---------|
 D|--5---5---5---10---10---10------5--5--5---8--8--8---------|
 A|--5---5---5---10---10---10------3--3--3---6--6--6---------|
 E|--3---3---3---8----8----8---------------------------------|Play x2
         Raw electricity          Runs through the cities
       And now is it time         To be running to me

  Chorus
 e|-----------------------------------------------------------|
 B|---------------------7--7--7--7--7--7--7-------------------|
 G|---------------------7--7--7--7--7--7--7-------------------|
 D|-7--7--7--7--7--7----7--7--7--7--7--7--7-------------------|
 A|-7--7--7--7--7--7----5--5--5--5--5--5--5-------------------|
 E|-5--5--5--5--5--5------------------------------------------|
   No place to hide    No chance of stalling   

 e|-----------------------------------------------------------|
 B|---------------------5--5--5--5--5--5--5-------------------|
 G|---------------------5--5--5--5--5--5--5-------------------|
 D|-5--5--5--5--5--5----5--5--5--5--5--5--5-------------------|
 A|-5--5--5--5--5--5----3--3--3--3--3--3--3-------------------|
 E|-3--3--3--3--3--3------------------------------------------|
   No warning sign     No way out calling   (Play x2 then)

 e|-----------------------------------------------------------|
 B|-------------------7--7--7--7--7--7------------------------|
 G|-------------------7--7--7--7--7--7------------------------|
 D|-7--7--7--7--7--7--7--7--7--7--7--7------------------------|
 A|-7--7--7--7--7--7--5--5--5--5--5--5------------------------|
 E|-5--5--5--5--5--5------------------------------------------|
         No place to hide-ide-de

  Verus
 e|----------------------------------------------------------|
 B|----------------------------------------------------------|
 G|----------------------------------------------------------|
 D|-5--5--5--5--5--5--5--5--5--5--5--5-----------------------|
 A|-5--5--5--5--5--5--5--5--5--5--5--5-----------------------|
 E|-3--3--3--3--3--3--3--3--3--3--3--3-----------------------|
   The mountains will crumble and the seas will rise

 e|----------------------------------------------------------|
 B|----------------------------------------------------------|
 G|-5--5--5--5--5--5--5--5--5--5--5--5-----------------------|
 D|-5--5--5--5--5--5--5--5--5--5--5--5-----------------------|
 A|-3--3--3--3--3--3--3--3--3--3--3--3-----------------------|
 E|----------------------------------------------------------|
   It will rain fire from blood-red skies

 e|----------------------------------------------------------|
 B|----------------------------------------------------------|
 G|----------------------------------------------------------|
 D|-5--5--5--5--5--5--5--5--5--5--5--5-----------------------|
 A|-5--5--5--5--5--5--5--5--5--5--5--5-----------------------|
 E|-3--3--3--3--3--3--3--3--3--3--3--3-----------------------|
   I will shoot an arrow into your heart
[ Tab from: http://www.guitartabs.cc/tabs/a/ash/no_place_to_hide_tab.html ]
 e|----------------------------------------------------------|
 B|----------------------------------------------------------|
 G|-5--5--5--5--5--5--5--5--5--5--5--5-----------------------|
 D|-5--5--5--5--5--5--5--5--5--5--5--5-----------------------|
 A|-3--3--3--3--3--3--3--3--3--3--3--3-----------------------|
 E|----------------------------------------------------------|
   You will come running into my arms

 Pre-Chorus 1
 e|----------------------------------------------------------|
 B|----------------------------------------------------------|
 G|-----------------------------5--5--5----------------------|
 D|--5---5---5---2---2---2------5--5--5---13--13--13---------|
 A|--5---5---5---2---2---2------3--3--3---13--13--13---------|
 E|--3---3---3---0---0---0----------------11--11--11---------|Play x2
   Oh tonight it is gathering 	Reasons unravelling
   Streets they are burning     And darkness is travelling

 e|----------------------------------------------------------|
 B|----------------------------------------------------------|
 G|--------------------------------5--5--5---8--8--8---------|
 D|--5---5---5---10---10---10------5--5--5---8--8--8---------|
 A|--5---5---5---10---10---10------3--3--3---6--6--6---------|
 E|--3---3---3---8----8----8---------------------------------|Play x2
         Raw electricity          Runs through the cities
       And now is it time         To be running to me

  Chorus
 e|-----------------------------------------------------------|
 B|---------------------7--7--7--7--7--7--7-------------------|
 G|---------------------7--7--7--7--7--7--7-------------------|
 D|-7--7--7--7--7--7----7--7--7--7--7--7--7-------------------|
 A|-7--7--7--7--7--7----5--5--5--5--5--5--5-------------------|
 E|-5--5--5--5--5--5------------------------------------------|
   No place to hide    No chance of stalling   

 e|-----------------------------------------------------------|
 B|---------------------5--5--5--5--5--5--5-------------------|
 G|---------------------5--5--5--5--5--5--5-------------------|
 D|-5--5--5--5--5--5----5--5--5--5--5--5--5-------------------|
 A|-5--5--5--5--5--5----3--3--3--3--3--3--3-------------------|
 E|-3--3--3--3--3--3------------------------------------------|
   No warning sign     No way out calling   (Play x2 then)

 e|-----------------------------------------------------------|
 B|-------------------7--7--7--7--7--7------------------------|
 G|-------------------7--7--7--7--7--7------------------------|
 D|-7--7--7--7--7--7--7--7--7--7--7--7------------------------|
 A|-7--7--7--7--7--7--5--5--5--5--5--5------------------------|
 E|-5--5--5--5--5--5------------------------------------------|
         No place to hide-ide-de

 Pre-Chorus 2
 e|---------------------------------------------------|
 B|---------------------------------------------------|
 G|---------------------------------------------------|
 D|-5--5--6--5--6--5--5--6--5--5--6--5--6--5--6-------|\
 A|-5--5--5--5--5--5--5--5--5--5--5--5--5--5--5-------| \
 E|-3--3--3--3--3--3--3--3--3--3--3--3--3--3--3-------|  \
  |						      |   Play x4
 e|---------------------------------------------------|  /
 B|---------------------------------------------------| /
 G|-5--5--6--5--6--5--5--6--5--5--6--5--6--5--6-------|/
 D|-5--5--5--5--5--5--5--5--5--5--5--5--5--5--5-------|
 A|-3--3--3--3--3--3--3--3--3--3--3--3--3--3--3-------|
 E|---------------------------------------------------|

The chorus is the same after this part but the stumming changes
stum it nice n soft and pick a sting or so. listen to the song
and you'll pick it up.

  Chorus (Soft Stumming)
 e|-------------------------------------------------|
 B|---------------------7--7--7--7--7--7--7---------|
 G|---------------------7--7--7--7--7--7--7---------|
 D|-7--7--7--7--7--7----7--7--7--7--7--7--7---------|
 A|-7--7--7--7--7--7----5--5--5--5--5--5--5---------|
 E|-5--5--5--5--5--5--------------------------------|
   No place to hide    No chance of stalling

 e|-------------------------------------------------|
 B|---------------------5--5--5--5--5--5--5---------|
 G|---------------------5--5--5--5--5--5--5---------|
 D|-5--5--5--5--5--5----5--5--5--5--5--5--5---------|
 A|-5--5--5--5--5--5----3--3--3--3--3--3--3---------|
 E|-3--3--3--3--3--3--------------------------------|
   No warning sign     No way out calling   (Play x8 then)

 e|-------------------------------------------------|
 B|-------------------7--7--7--7--7--7--------------|
 G|-------------------7--7--7--7--7--7--------------|
 D|-7--7--7--7--7--7--7--7--7--7--7--7--------------|
 A|-7--7--7--7--7--7--5--5--5--5--5--5--------------|
 E|-5--5--5--5--5--5--------------------------------|
         No place to hide-ide-de

Guiter 2 with distortion plays this over the top of the chorus 
after the chorus has been plays twice. Let notes ring
 e|-------------------------------------------------|
 B|---------------------7---------------------------|
 G|---------------------7---------------------------|
 D|-7-------------------7---------------------------|
 A|-7-------------------5---------------------------|
 E|-5-----------------------------------------------|
  |						    |
 e|-------------------------------------------------|
 B|---------------------5---------------------------|
 G|---------------------5---------------------------|
 D|-5-------------------5---------------------------|
 A|-5-------------------3---------------------------|
 E|-3-----------------------------------------------|

 e|----------------------------------------------------------|
 B|-------------------7--7--7--7--7--7-----------------------|
 G|-------------------7--7--7--7--7--7-----------------------|
 D|-7--7--7--7--7--7--7--7--7--7--7--7-----------------------|
 A|-7--7--7--7--7--7--5--5--5--5--5--5-----------------------|
 E|-5--5--5--5--5--5-----------------------------------------|
         No place to hide-ide-de

 e|----------------------------------------------------------|
 B|----------------------------------------------------------|
 G|-----------------------------5--5--5----------------------|
 D|--5---5---5---2---2---2------5--5--5---13--13--13---------|
 A|--5---5---5---2---2---2------3--3--3---13--13--13---------|
 E|--3---3---3---0---0---0----------------11--11--11---------|Play x2
   Oh tonight it is gathering 	Reasons unravelling
   Streets they are burning     And darkness is travelling

 e|----------------------------------------------------------|
 B|----------------------------------------------------------|
 G|--------------------------------5--5--5---8--8--8---------|
 D|--5---5---5---10---10---10------5--5--5---8--8--8---------|
 A|--5---5---5---10---10---10------3--3--3---6--6--6---------|
 E|--3---3---3---8----8----8---------------------------------|Play x2
         Raw electricity          Runs through the cities
       And now is it time         To be running to me

 e|----------------------------------------------------------|
 B|-------------------7--7--7--7--7--7-----------------------|
 G|-------------------7--7--7--7--7--7-----------------------|
 D|-7--7--7--7--7--7--7--7--7--7--7--7-----------------------|
 A|-7--7--7--7--7--7--5--5--5--5--5--5-----------------------|
 E|-5--5--5--5--5--5-----------------------------------------|
         No place to hide-ide-de


No Place To Hide

In the end it all comes down to dust
Language will vanish and machines will rust
Reality will come apart at the seams
Your life will unravel into your dreams

Now a storm it is gathering
Reasons unravelling
Streets they are burning
And darkness is travelling
Raw electricity
Runs through the cities
And now is it time
To be running to me

Nowhere to run to and no place to hide
Make a final promise and I'll make you mine
We'll burn with raw emotion as the flames arise
Higher and higher in the western night

Now a storm it is gathering
Reasons unravelling
Streets they are burning
And darkness is travelling
Raw electricity
Runs through the cities
And now is it time
To be running to me

No place to hide
No chance of stalling
No warning sign
No way out calling

No place to hide
No chance of stalling
No warning sign
No way out calling
No place to hide

The mountains will crumble and the seas will rise
It will rain fire from blood-red skies
I will shoot an arrow into your heart
You will come running into my arms

Oh tonight it is gathering
Reasons unravelling
Streets they are burning
And darkness is travelling
Raw electricity
Runs through the cities
And now is it time
To be running to me

No place to hide
No chance of stalling
No warning sign
No way out calling

No place to hide
No chance of stalling
No warning sign
No way out calling
No place to hide

No place to hide
No chance of stalling
No warning sign
No way out calling

No place to hide
No chance of stalling
No warning sign
No way out calling
No place to hide 

Now a storm it is gathering
Reasons unravelling
Streets they are burning
And darkness is travelling
Raw electricity
Runs through the cities
And now is it time
To be running to me
No place to hide
Comments