Ash - Meltdown Chords & Tabs

 

Meltdown Chords & Tabs

Ash Chords & Tabs

Version: 3 Type: Tab 0 ratings
1 star 2 stars 3 stars 4 stars 5 stars
comments

Meltdown Tab

Band: Ash
Song: Meltdown
Album: Meltdown
Tabbed by: Shiruzu
Email: letaldj@libero.it

Tuning: Standard

Intro (after Bass Riff)

e|---------------------------------------------------------| x2
B|---------------------------------------------------------|
G|---5-/-7-7-7-7-7-7-7-7-7-7-7-\-5-/-7-7-7-7-7-7-7-7-7-7-7-|
D|---5-/-7-7-7-7-7-7-7-7-7-7-7-\-5-/-7-7-7-7-7-7-7-7-7-7-7-|
A|---3-/-5-5-5-5-5-5-5-5-5-5-5-\-3-/-5-5-5-5-5-5-5-5-5-5-5-|
E|---------------------------------------------------------|
         . . . . . . . . . . .       . . . . . . . . . . .


Then Main Riff

e|---------------------------------------------------------------------| x2
B|---------------------------------------------------------------------|
G|777-7-7-7-7-7-7-7-7/10-10-10\7-7-7-7-7-7-7-7-7-7-7-7-7-7/5-5-5\777777|
D|777-7-7-7-7-7-7-7-7/10-10-10\7-7-7-7-7-7-7-7-7-7-7-7-7-7/5-5-5\777777|
A|555-5-5-5-5-5-5-5-5/8--8--8-\5-5-5-5-5-5-5-5-5-5-5-5-5-5/3-3-3\555555|
E|---------------------------------------------------------------------|

at the beginning of the verse, end the main riff on:

e|-------|
B|-------|
G|--7\---|
D|--7\---|
A|--5\---|
E|-------|

Verse:

Revolution with a solution

e|-------------------------------------------------------|
B|-------------------------------------------------------|
G|--7-7-7-7-7-7-7-7-7-7-7-/-5-5-5-\-7-7-7-7-7-7-7-7-7-7--|
D|--7-7-7-7-7-7-7-7-7-7-7-/-5-5-5-\-7-7-7-7-7-7-7-7-7-7--|
A|--5-5-5-5-5-5-5-5-5-5-5-/-3-3-3-\-5-5-5-5-5-5-5-5-5-5--|
E|-------------------------------------------------------|

then repeat main riff

e|---------------------------------------------------------------------| 
B|---------------------------------------------------------------------|
G|777-7-7-7-7-7-7-7-7/10-10-10\7-7-7-7-7-7-7-7-7-7-7-7-7-7/5-5-5\777777|
D|777-7-7-7-7-7-7-7-7/10-10-10\7-7-7-7-7-7-7-7-7-7-7-7-7-7/5-5-5\777777|
A|555-5-5-5-5-5-5-5-5/8--8--8-\5-5-5-5-5-5-5-5-5-5-5-5-5-5/3-3-3\555555|
E|---------------------------------------------------------------------|

chorus: main riff

e|---------------------------------------------------------------------| x2
B|---------------------------------------------------------------------|
G|777-7-7-7-7-7-7-7-7/10-10-10\7-7-7-7-7-7-7-7-7-7-7-7-7-7/5-5-5\777777|
D|777-7-7-7-7-7-7-7-7/10-10-10\7-7-7-7-7-7-7-7-7-7-7-7-7-7/5-5-5\777777|
A|555-5-5-5-5-5-5-5-5/8--8--8-\5-5-5-5-5-5-5-5-5-5-5-5-5-5/3-3-3\555555|
E|---------------------------------------------------------------------|

End Chorus on:

e|-------------------------------------|
B|-------------------------------------|
G|---5v---7-7-7---5v-----10-10-10-7\---|
D|---5v---7-7-7---5v-----10-10-10-7\---|
A|---3v---5-5-5---3v-----8--8--8--5\---|
E|-------------------------------------|

Verse 2: no rithm guitar
[ Tab from: http://www.guitartabs.cc/tabs/a/ash/meltdown_tab_ver_3.html ]
Chorus: start 2nd chorus on
e|-------------|
B|-------------|
G|---------7---|
D|---------7---|
A|---3-3-3-5---|
E|-------------|

then again

e|---------------------------------------------------------------------| x2
B|---------------------------------------------------------------------|
G|777-7-7-7-7-7-7-7-7/10-10-10\7-7-7-7-7-7-7-7-7-7-7-7-7-7/5-5-5\777777|
D|777-7-7-7-7-7-7-7-7/10-10-10\7-7-7-7-7-7-7-7-7-7-7-7-7-7/5-5-5\777777|
A|555-5-5-5-5-5-5-5-5/8--8--8-\5-5-5-5-5-5-5-5-5-5-5-5-5-5/3-3-3\555555|
E|---------------------------------------------------------------------|


Bridge

e|---------------------------------------------------------------------| x3
B|---------------------------------------------------------------------|
G|---5-5-5-5-5-5-5-5-5-7-7-7-7-7-7-7-7-7-7-4-4-4-4-4-4-----------------|
D|---5-5-5-5-5-5-5-5-5-7-7-7-7-7-7-7-7-7-7-4-4-4-4-4-4--3-4-5-5--3-4---|
A|---3-3-3-3-3-3-3-3-3-5-5-5-5-5-5-5-5-5-5-2-2-2-2-2-2--3-4-5-5--3-4---|
E|------------------------------------------------------1-2-3-3--1-2---|

e|-------------------------------------------------------------------|
B|-------------------------------------------------------------------|
G|---5-5-5-5-5-5-5-5-5-7-7-7-7-7-7-7-7-7-7-4-4-4-4-4-4-4-4-4-4-4-4---|
D|---5-5-5-5-5-5-5-5-5-7-7-7-7-7-7-7-7-7-7-4-4-4-4-4-4-4-4-4-4-4-4---|
A|---3-3-3-3-3-3-3-3-3-5-5-5-5-5-5-5-5-5-5-2-2-2-2-2-2-2-2-2-2-2-2---|
E|-------------------------------------------------------------------|

repeat intro:

e|---------------------------------------------------------| x2
B|---------------------------------------------------------|
G|---5-/-7-7-7-7-7-7-7-7-7-7-7-\-5-/-7-7-7-7-7-7-7-7-7-7-7-|
D|---5-/-7-7-7-7-7-7-7-7-7-7-7-\-5-/-7-7-7-7-7-7-7-7-7-7-7-|
A|---3-/-5-5-5-5-5-5-5-5-5-5-5-\-3-/-5-5-5-5-5-5-5-5-5-5-5-|
E|---------------------------------------------------------|
         . . . . . . . . . . .       . . . . . . . . . . .

then

e|-----------------|
B|-----------------|
G|---10-10-10-7\---|
D|---10-10-10-7\---|
A|---8--8--8--5\---|
E|-----------------|

Verse 3: same as verse 2

Chorus 3 and Solo:
 
e|---------------------------------------------------------------------| x8
B|---------------------------------------------------------------------|
G|777-7-7-7-7-7-7-7-7/10-10-10\7-7-7-7-7-7-7-7-7-7-7-7-7-7/5-5-5\777777|
D|777-7-7-7-7-7-7-7-7/10-10-10\7-7-7-7-7-7-7-7-7-7-7-7-7-7/5-5-5\777777|
A|555-5-5-5-5-5-5-5-5/8--8--8-\5-5-5-5-5-5-5-5-5-5-5-5-5-5/3-3-3\555555|
E|---------------------------------------------------------------------|

at the 8th time end the song on

e|-------------|
B|-------------|
G|--5-5-5-7\---|
D|--5-5-5-7\---|
A|--3-3-3-5\---|
E|-------------|

| /  slide up
| \  slide down
| .  Palm Muted

Hope it's right!

any comments, suggestions or whatever u want, send it to letaldj@libero.it
Comments