Ash - Meltdown Chords & Tabs

 

Meltdown Chords & Tabs

Ash Chords & Tabs

Version: 2 Type: Tab 0 ratings
1 star 2 stars 3 stars 4 stars 5 stars
comments

Meltdown Tab

   
ARTIST: Ash
TITLE: Meltdown
ALBUM: Meltdown
TABBED BY: kryptonite22
TUNING: Standard (E A D G B E)
NOTES: The other tab on here sounds too low. This one sounds about right because the
notes are higher and it's done in powerchords.

INTRO (after bass)
e|-----------------------------|
B|-----------------------------|
G|--6/8-8888888888888----------|
D|--6/8-8888888888888----------|
A|--4/6-6666666666666----------|
E|-----------------------------|
        .............
[ Tab from: http://www.guitartabs.cc/tabs/a/ash/meltdown_tab_ver_2.html ]
MAIN RIFF
e|---------------------------------------------|
B|---------------------------------------------|
G|--88888888/1111\888888888888/66\88888888888--|
D|--88888888/1111\888888888888/66\88888888888--|
A|--66666666/9-9-\666666666666/44\66666666666--|
E|---------------------------------------------|

AFTER CHORUS
e|---------------------------------------------|
B|---------------------------------------------|
G|--88-6>----88-6>----1111-8>------------------|
D|--88-6>----88-6>----1111-8>------------------|
A|--66-4>----66-4>----9-9--6>------------------|
E|---------------------------------------------|

("Now is the time...")
e|---------------------------------------------|
B|---------------------------------------------|
G|--3333--4444--8888--66-77--66--77------------|
D|--3333--4444--8888--66-77--66--77------------|
A|--1111--2222--6666--44-55--44--55------------|
E|---------------------------------------------|
Comments