Ash - Meltdown Chords & Tabs

 

Meltdown Chords & Tabs

Ash Chords & Tabs

Version: 1 Type: Tab 0 ratings
1 star 2 stars 3 stars 4 stars 5 stars
comments

Meltdown Tab

Artist: Ash
Album: Meltdown
Song: Meltdown

This is only part of it as i ain't finished it yet but i thought id get it started.  
need to work out the rhythm for yourself, but its really easy.

Intro:
[ Tab from: http://www.guitartabs.cc/tabs/a/ash/meltdown_tab.html ]
e-------               --------------------------|
b-------               --------------------------|
g-5-5/7-  repeat 4x    -7--9--7--5--7   repeat 2-|
D-5-5/7-               -7--9--7--5--7------------|
A-3-3/5-               -5--8--5--3--5------------|
E-------               --------------------------|

(Break) "Revolution, we're the solution"

e---------|---------------|    ----------------------------------|
b---------|---------------|    ----------------------------------|
g-7--5--7-|-7--9--7--5--7-| x3 -5*-7-7-7-5*-7-7-7-5*--10-10-10-7-|
D-7--5--7-|-7--9--7--5--7-|    -5*-7-7-7-5*-7-7-7-5*--10-10-10-7-|
A-5--3--5-|-5--8--5--3--5-|    -3*-5-5-5-3*-5-5-5-3*---8--8--8-5-|
E---------|---------------|    ----------------------------------|
Comments