Ash - Meltdown Chords & Tabs

 

Meltdown Chords & Tabs

Ash Chords & Tabs

Version: 1 Type: Bass Tab 0 ratings
1 star 2 stars 3 stars 4 stars 5 stars
comments

Meltdown Bass Tab

   
Artist:Ash
Song:Meltdown
Album:Meltdown
Bassist:Mark Hamilton

Intro: (x5)
G----------------------------------------------------------------------------|
D----------------------------------------------------------------------------|
A-3-5-5-5-5-5-5-5-5-5-5-5-5-5-5----------------------------------------------|
E----------------------------------------------------------------------------|

Run into Verse: Play this bit when going into the verse after the intro
G-----------|
D-----------|
A-3-4-4-5---|
E-----------|

[ Tab from: http://www.guitartabs.cc/tabs/a/ash/meltdown_btab.html ]
Verse/Chorus:
G----------------------------------------------------------------------------|
D----------------------------------------------------------------------------|
A-5-5-5-5-5-5-5-5-8-8-8-5-5-5-5-5-5-5-5-5-5-5-3-3-3-5-5-5--------------------|
E----------------------------------------------------------------------------|

Bridge:
G-----------------------------------------------------------------------------|
D-----------------------------------------------------------------------------|
A-5-5-5-5-5-5-5-5-7-7-7-7-7-7-7-7-5-5-5-5-3-3-4-4-5-5-5-5-5-5-5-5-5-5-5-5-5-5-|
E-----------------------------------------------------------------------------|

Tabbed by: M.Moloney
Comments