Ash - Melon Farmer Chords & Tabs

 

Melon Farmer Chords & Tabs

Ash Chords & Tabs

Version: 2 Type: Tab 0 ratings
1 star 2 stars 3 stars 4 stars 5 stars
comments

Melon Farmer Tab

MELON FARMER BY ASH

TABBED BY RUAIRI COLEMAN

 Legends
 (2~) = Hold note to get feedback
   BH = Bend note and hold
    > = Hold note
    R = Release note
    / = Slide up neck
    \ = Slide down neck
   // = Slide but don't strike the next note

 (Intro)
 e|-------------------------------------------------------|
 B|-------------------------------------------------------|
 G|------7-7-7-7-5-5-5-5-5-------7-7-7-7-5-5-5-5-5--------| (Play X2
 D|---7--7-7-7-7-5-5-5-5-5----7--7-7-7-7-5-5-5-5-5--------| Then lyris
 A|---7--5-5-5-5-3-3-3-3-3----7--5-5-5-5-3-3-3-3-3--------| kick in)
 E|---5-----------------------5---------------------------|
                                 Motherfucker
        
 (Verus)
 e|-------------------------------------------------------|
 B|-------------------------------------------------------|
 G|------7-7-7-7-5-5-5-5-5-------7-7-7-7-5-5-5-5-5--------|
 D|---7--7-7-7-7-5-5-5-5-5----7--7-7-7-7-5-5-5-5-5--------|
 A|---7--5-5-5-5-3-3-3-3-3----7--5-5-5-5-3-3-3-3-3--------|
 E|---5-----------------------5---------------------------|
          What's going on         In my head
          It's racing round       I'm left for dead
          Coming round            Losing Heart           

 e|-------------------------------------------------------|
 B|-------------------------------------------------------|
 G|------7-7-7-7-5-5-5-5-5-------7-7-7-7-5-5-5-5-5--------|
 D|---7--7-7-7-7-5-5-5-5-5----7--7-7-7-7-5-5-5-5-5--------|
 A|---7--5-5-5-5-3-3-3-3-3----7--5-5-5-5-3-3-3-3-3--------|
 E|---5-----------------------5---------------------------|
         Making love             Then it starts

 (Chorus)
 e|-----------------------------------------------------------|
 B|-----------------------------------------------------------|
 G|-----------------------------------------------------------|
 D|---2-2-2/7-7-7/9-9-9\7-7-7----2-2-2/7-7-7/9-9-9\7-7-7------|
 A|---2-2-2/7-7-7/9-9-9\7-7-7----2-2-2/7-7-7/9-9-9\7-7-7------|
 E|---0-0-0/5-5-5/7-7-7\5-5-5----0-0-0/5-5-5/7-7-7\5-5-5------|
    Got to get away from here    Got to get away from here
[ Tab from: http://www.guitartabs.cc/tabs/a/ash/melon_farmer_tab_ver_2.html ]
 e|-----------------------------------------------------------|
 B|-----------------------------------------------------------|
 G|-----------------------------------------------------------|
 D|---2-2-2/7-7-7/9-9-9\7-7-7----2-2-2/7-7-7/9-9-9\7-7-7------|
 A|---2-2-2/7-7-7/9-9-9\7-7-7----2-2-2/7-7-7/9-9-9\7-7-7------|
 E|---0-0-0/5-5-5/7-7-7\5-5-5----0-0-0/5-5-5/7-7-7\5-5-5------|
    Got to get away from here    Got to get away from here

  First Solo 
 e|----------------------------------------------------------------|
 B|----------------------------------------------------------------|
 G|-----------7BH>->->->->->7R------5------7--5--7--5--7B--5--2--0-|
 D|--(2~)----------------------------------------------------------|
 A|--(2~)----------------------------------------------------------|
 E|--(0~)----------------------------------------------------------|

 e|-------------------------------------------------------------------------|
 B|-------------------------------------------------------------------------|
 G|-------------------------------------------------------------------------|
 D|-(2~)--2--//---5---//---7--//--9--//--12---7-x-7-x-7-x-7-x-7-x-7-x-7-x-7-|
 A|-(2~)--------------------------------------7-x-7-x-7-x-7-x-7-x-7-x-7-x-7-|
 E|-(0~)--------------------------------------5-x-5-x-5-x-5-x-5-x-5-x-5-x-5-|

Start Of Next Solo
 e|----------------------------------------------------------------|
 B|-21-17-21-17-21B-21B-21B-21B-21-17------------------------------|
 G|-----------------------------------20-17------------------------|
 D|----------------------------------------------------------------|
 A|----------------------------------------------------------------|
 E|----------------------------------------------------------------|

Thats it. I can't work out the rest of the solo but it's on its way 
even you are reading this :)

Melon Farmer

(Intro)
Motherfucker

(Verus)
What's going on in my head
It's racing round
I'm left for dead
Coming round
Losing Heart
Making love
Then it starts

(Chorus)
Got to get away from here
Got to get away from here
Got to get away from here
Comments