Ash - Melon Farmer Chords & Tabs

 

Melon Farmer Chords & Tabs

Ash Chords & Tabs

Version: 1 Type: Tab 0 ratings
1 star 2 stars 3 stars 4 stars 5 stars
comments

Melon Farmer Tab

   
Ash - Melon Farmer (Sometimes b-side)
Tabbed by Mathew Kivell (matty85uk@hotmail.com)

A5:	577xxx
D5:	x577xx
C5:	x355xx
E5:	x799xx


Intro/Verse:

A5, D5, C5
[ Tab from: http://www.guitartabs.cc/tabs/a/ash/melon_farmer_tab.html ]
E -5--5---------------
A -7--7--5--3--3--3--3
D -7--7--7--5--5--5--5
G -------7--5--5--5--5
B --------------------
e --------------------

Chorus:

A5, D5, E5, D5

E -5--5---------------------------
A -7--7--5--5--5--7--7--5--5--5--5
D -7--7--7--7--7--9--9--7--7--7--7
G -------7--7--7--9--9--7--7--7--7
B --------------------------------
e --------------------------------
Comments