Ash - Kung Fu Chords & Tabs

 

Kung Fu Chords & Tabs

Ash Chords & Tabs

Version: 3 Type: Bass Tab 0 ratings
1 star 2 stars 3 stars 4 stars 5 stars
comments

Kung Fu Bass Tab

Band:Ash
song:Kung Fu
Album:1977 or Live at the Wireless
Bassist: Mark Hamilton

This is a real easy song to play and it sounds great. Theres two versions i've taken 
one from the 'live at the wireless' version.
Verse:(x4)
G----------------------------------------------------------------------------|
D----------------------------------------------------------------------------|
A-\7-7-7----7-7--------------------------------------------------------------|
E--------7-7----7-7-7-7-5-5-5-5-5-7-7-7-7-7-7--------------------------------|
[ Tab from: http://www.guitartabs.cc/tabs/a/ash/kung_fu_btab_ver_3.html ]
Chorus:(x2)
G----------------------------------------------------------------------------|
D----------------------------------------------------------------------------|
A-5-5------------------------------------------------------------------------|
E----5-5-7-7-5-5-5-5-3-3-2-2-0-0-2-2-2---------------------------------------|

Bridge:(This is sometimes played when going back into a verse from a chorus)
G----------------------------------------------------------------------------|
D----------------------------------------------------------------------------|
A-7-7----7-7--------7-7-----7------------------------------------------------|
E-----7-7---7-7-7-7-----7-7--7-7-7-7-7-7-------------------------------------|

Tabbed by: M.Moloney
Comments