Ash - Jesus Says Chords & Tabs

 

Jesus Says Chords & Tabs

Ash Chords & Tabs

Version: 1 Type: Bass Tab 0 ratings
1 star 2 stars 3 stars 4 stars 5 stars
comments

Jesus Says Bass Tab

Artist: Ash
Song: Jesus Says
Album: Nu-Clear Sounds
Bassist: Mark Hamilton

Intro:
G----------|
D----------|
A----------|
E-10/5-----|
[ Tab from: http://www.guitartabs.cc/tabs/a/ash/jesus_says_btab.html ]
Verse:
G-------------------------------------------------------------------------|
D-------------------------------------------------------------------------|
A--------------5-5-5-5-5-5-5----------------------------------------------|
E-5-5-5-5-5-5-5-----------------------------------------------------------|

Chorus:
G--------------------------------------------------------------------------|
D--------------------------------------------------------------------------|
A---------3-5-5-5h3--------------------------------------------------------|
E-3-3-0-0----------3-3-0-0-5-5-5-5-5-5-5-5---------------------------------|

Tabbed by M.Moloney
Comments