Ash - Goldfinger Chords & Tabs

 

Goldfinger Chords & Tabs

Ash Chords & Tabs

Version: 2 Type: Bass Tab 0 ratings
1 star 2 stars 3 stars 4 stars 5 stars
comments

Goldfinger Bass Tab

Artist: Ash
Song: Goldfinger
Album: 1977
Type of Tab: Bass Tab
Tabbed by: Rhodri Lawrence 

This is a kick ass song, there are a few crap tabs of this song out there, 
but this one is right, well it fits anyhow. If you play this to the song or 
in a band it will sound right. I haven't put in the exact tab but it gives 
the outline for the song, I think this is more use than a fully tabbed out 
song that is exact, you wouldn't be able to play it properly and way as 
there are no note values, so using an outline like this is more benificial - 
well thats what I think.

This is in 4/4 or common time

Intro
G|---------|---------|---------|---------|
D|---------|---------|---------|---------|
A|-1-1-1-1-|-1-1-1-1-|-1-1-1-1-|-1-1-1-1-|
E|---------|---------|---------|---------|

G|---------|---------|---------|---------|---------|---------|x2
D|*--------|---------|---------|---------|---------|--------*|
A|*----2-2-|-----2-2-|-----2-2-|-----2-2-|-4-4-4-4-|-1-1-1-1*|
E|-4-4-----|-2-2-----|-2-2-----|-2-2-----|---------|---------|
[ Tab from: http://www.guitartabs.cc/tabs/a/ash/goldfinger_btab_ver_2.html ]
Verse
G|---------|---------|---------|---------|---------|---------|---------|
D|---------|---------|---------|---------|---------|---------|---------|
A|----1----|---------|-3-3-----|-1-1-1-1-|----1----|---------|-3-3-----|
E|---------|----3----|-----1-1-|---------|---------|----3----|-----1-1-|

G|---------|---------|---------|
D|---------|---------|---------|
A|-----0-0-|-3-3-----|-1-1-1-1-|
E|-0-0-----|-----1-1-|---------|

Chorus
G|---------||---------|---------|---------|---------|---------|---------|x2
D|---------||*--------|---------|---------|---------|---------|--------*|
A|-1-1-1-1-||*----2-2-|-----2-2-|-----2-2-|-----2-2-|-4-4-4-4-|-1-1-1-1*|
E|---------||-4-4-----|-2-2-----|-2-2-----|-2-2-----|---------|---------|

Verse

Chorus

Guitar Solo
G|---------|---------|---------|---------|---------|---------|
D|---------|---------|---------|---------|---------|---------|
A|-----1-1-|-1-1-1-1-|-----1-1-|-1-1-1-1-|-----1-1-|-1-1-1-1-|
E|-2-2-----|---------|-2-2-----|---------|-2-2-----|---------|

G|---------|---------|
D|---------|---------|
A|-----1-1-|-1-1-1-1-|
E|-2-2-----|---------|

Verse

Chorus

Chorus

End of Song!
Thanks for reading my tab, I hope it is usfull to you.
Rhodri Lawrence - rod_lawrence86@hotmail.com
Comments