Ash - Girl From Mars Chords & Tabs

 

Girl From Mars Chords & Tabs

Ash Chords & Tabs

Version: 3 Type: Tab 0 ratings
1 star 2 stars 3 stars 4 stars 5 stars
comments

Girl From Mars Tab

---------------------------------------------------------------------
			     Girl from mars solo - Ash
---------------------------------------------------------------------
Tabbed by: Craig Dobson
Email:craigdobson.home@ntlworld.com

Tuning: EADGBe

e|-----------------------------10-9-7-9-7---------------------------|
B|-5-5-5-7-7-9-9-10-10-7-7-7-7------------5-5-5-5-7-7-9-9-10-10-7-7-|
G|------------------------------------------------------------------|
D|------------------------------------------------------------------|
A|------------------------------------------------------------------|
E|------------------------------------------------------------------|
[ Tab from: http://www.guitartabs.cc/tabs/a/ash/girl_from_mars_tab_ver_3.html ]
e|-----10-12-9-10-912p10p9p12p10p9p12p10p9p12p10p9p12p10p9p-10p9p7p|
B|-7-7--------------------------------------------------------------|
G|------------------------------------------------------------------|
D|------------------------------------------------------------------|
A|------------------------------------------------------------------|
E|------------------------------------------------------------------|

e|-10p9p7p10p9p7p10p9p7p-9p8p7p9p8p7p9p8p7p-------------------------|
B|------------------------------------------7-7-9-10-9-12/14\12-10-9|
G|------------------------------------------------------------------|
D|------------------------------------------------------------------|
A|------------------------------------------------------------------|
E|------------------------------------------------------------------|

e|------------------------------------------------------------------|
B|-7-7-5-7-9-10-9-10-12/14\12-10-12-12------------------------------|
G|------------------------------------------------------------------|
D|------------------------------------------------------------------|
A|------------------------------------------------------------------|
E|------------------------------------------------------------------|

That's it. I tabbed this from watching the video in super slow motion so it is 100% correct 

P= pull of
Comments