Ash - Girl From Mars Chords & Tabs

 

Girl From Mars Chords & Tabs

Ash Chords & Tabs

Version: 2 Type: Tab 0 ratings
1 star 2 stars 3 stars 4 stars 5 stars
comments

Girl From Mars Tab

   
-------------------------------------------------------------------------------
			     Girl From Mars - Ash
-------------------------------------------------------------------------------
Tabbed by: Terence Hall - tezhall
Email: tez@affordablesupplements.co.uk

Tuning: Standard

Picked this up off the top of my head, not from a CD so it might be in the
totally wrong key...but it's right to my voice when I'm singing along to it...

Not sure of all the words so some of them are ???? or guesses and I don't have
the CD here to get them right now, I'll stick em up as a correction if I can or
if anyone wants to email em to me then feel free....also you'll need to pick up
the strumming and timing for the solo off the CD. (in the solo my keyboard
doesn't have a curvy arrow key for some reason...so the / means a bend just so
you know)

Chorus 1;

e|-0---0---2---1---0--||
B|-2---0---3---2---0--||.
G|-2---1---2---3---1--||
D|-2---2---0---3---2--||.
A|-0---2---0---1---2--||
E|-0---0---x---1---0--||
   A   E   D   Bm  E  

D'you remember the time when you were the girl from mars
I don't know if you knew that

e|-0---0---2---1---0---0---0---2---1---2---0---0--|
B|-2---0---3---2---0---2---0---3---2---3---0---2--|
G|-2---1---2---3---1---2---1---2---3---2---1---2--|
D|-2---2---0---3---2---2---2---0---3---0---2---2--|
A|-0---2---0---1---2---0---2---0---1---0---2---0--|
E|-0---0---x---1---0---0---0---x---1---x---0---0--|
   A   E   D   Bm  E   A   E   D   Bm  D   E   A

Oh we'd stay up late playing cards, Henri Winterman cigars
But she never told me her name
I still love you, the girl from mars

Bridge; (repeated quick strummage)

e|-0--|
B|-2--|
G|-2--|
D|-2--|
A|-0--|
E|-0--|
   A

Verse 1; (play 3 times)

e|-0---0---2---1---0--|
B|-2---0---3---2---0--|
G|-2---1---2---3---1--|
D|-2---2---0---3---2--|
A|-0---2---0---1---2--|
E|-0---0---x---1---0--|
   A   E   D   Bm  E

Sitting in a dreamy daze by the water's edge
On a crisp summer night
???????? from your cigarette

e|-0---0---2---1---0---0---0---2---1---2---0---0--|
B|-2---0---3---2---0---2---0---3---2---3---0---2--|
G|-2---1---2---3---1---2---1---2---3---2---1---2--|
D|-2---2---0---3---2---2---2---0---3---0---2---2--|
A|-0---2---0---1---2---0---2---0---1---0---2---0--|
E|-0---0---x---1---0---0---0---x---1---x---0---0--|
   A   E   D   Bm  E   A   E   D   Bm  D   E   A

The breeze blowing softly on my face
Reminds me of something else
Something that in my memory has been misplaced
And suddenly all comes back
And as I look to the stars


Chorus 2;
[ Tab from: http://www.guitartabs.cc/tabs/a/ash/girl_from_mars_tab_ver_2.html ]
e|-0---0---2---1---0--||
B|-2---0---3---2---0--||.
G|-2---1---2---3---1--||
D|-2---2---0---3---2--||.
A|-0---2---0---1---2--||
E|-0---0---x---1---0--||
   A   E   D   Bm  E  

D'you remember the time when you were the girl from mars
I don't know if you knew that

e|-0---0---2---1---0---0---0---2---1---2---0---0--|
B|-2---0---3---2---0---2---0---3---2---3---0---2--|
G|-2---1---2---3---1---2---1---2---3---2---1---2--|
D|-2---2---0---3---2---2---2---0---3---0---2---2--|
A|-0---2---0---1---2---0---2---0---1---0---2---0--|
E|-0---0---x---1---0---0---0---x---1---x---0---0--|
   A   E   D   Bm  E   A   E   D   Bm  D   E   A

Oh we'd stay up late playing cards, Henri Winterman cigars
But she never told me her name
I still love you, the girl from mars

Bridge; (repeated quick strummage)

e|-0--|
B|-2--|
G|-2--|
D|-2--|
A|-0--|
E|-0--|
   A

Solo; (all on top e string, listen to CD for the timing on the notes)

E|-0-0-2-2-4-4-5-5-5-0-2-2-2-2-10-9-7-9-7-0-0-2-2-4-4-5-5-5-0-2-2-2-2-10-12-9-10-9-12-10-9-12-10-9|

E|-12-10-9-12-10-9-10-9-7-10-9-7-10-9-7-10-9-7-9-8-7-9-8-7-9-8-7-9-8-7-2-2-4-5-4-5-7/8-5-4-2-0-2-4|

E|-5-4-5-7/8-9-7-5-7-7|

Verse 2;

e|-0---0---2---1---0---0---0---2---1---2--P--0--P--0--|
B|-2---0---3---2---0---2---0---3---2---3--A--0--A--2--|
G|-2---1---2---3---1---2---1---2---3---2--U--1--U--2--|
D|-2---2---0---3---2---2---2---0---3---0--S--2--S--2--|
A|-0---2---0---1---2---0---2---0---1---0--E--2--E--0--|
E|-0---0---x---1---0---0---0---x---1---x--!--0--!--0--|
   A   E   D   Bm  E   A   E   D   Bm  D     E     A

Today I sleep in the chair by the window
It felt as if you'd returned
I thought that you were standing over me
When I woke there was no-one there......(PAUSE)
I still love you, the girl from....(PAUSE)
Mars

Chorus 3; (play 4 times)

e|-0---0---2---1---0--||
B|-2---0---3---2---0--||.
G|-2---1---2---3---1--||
D|-2---2---0---3---2--||.
A|-0---2---0---1---2--||
E|-0---0---x---1---0--||
   A   E   D   Bm  E  

D'you remember the time when you were the girl from mars
I don't know if you knew that

Oh we'd stay up late playing cards, Henri Winterman cigars
But she never told me her name

Outro;

e|-0---0---2---1---0---0---0---2---1---2---0---0--|
B|-2---0---3---2---0---2---0---3---2---3---0---2--|
G|-2---1---2---3---1---2---1---2---3---2---1---2--|
D|-2---2---0---3---2---2---2---0---3---0---2---2--|
A|-0---2---0---1---2---0---2---0---1---0---2---0--|
E|-0---0---x---1---0---0---0---x---1---x---0---0--|
   A   E   D   Bm  E   A   E   D   Bm  D   E   A

D'you remember the time when you were the girl from mars
I don't know if you knew that

Oh we'd stay up late playing cards, Henri Winterman cigars
But I still dream of you
I still love you the girl from mars
Comments