Ash - Evil Eye Chords & Tabs

 

Evil Eye Chords & Tabs

Ash Chords & Tabs

Version: 1 Type: Bass Tab 0 ratings
1 star 2 stars 3 stars 4 stars 5 stars
comments

Evil Eye Bass Tab

   
Song: Evil Eye
Artist: Ash
Tabber: Zeidrich

Intro is just guitar, so is verse

Pre Chorus:

G|-----------------|
D|-----------------|
A|-----------------|
E|-5-6-5-6-5-6-5-6-|

Chorus:

G|-------------------------------------|
D|-------------------------------------|
A|-1111-111------------------5555-3333-|
E|---------1131-111-5555-555-----------|

G|-------------------------------------|
D|-------------------------------------|
A|-1111-111------------------5555-33/--|
E|---------1131-111-5555-555-----------|

G|-------------------------------------|
D|-------------------------------------|
A|-1111-111------------------5555-3333-|
E|---------1131-111-5555-555-----------|

G|-------------------------------------------|
D|-------------------------------------------|
A|-1111-111----------------------------------|
E|---------1131-111-5555-555-5-6-5-6-5-6-5-6-|

Verse:

G|---------------|
D|---------------|
A|-5/8--8/0--0/5-| x3
E|---------------|

G|------------------------|
D|------------------------|
A|-5/8--8/0-0-0-0-0-0-0-0-|
E|------------------------|

Pre Chorus:

G|-----------------|
D|-----------------|
A|-----------------|
E|-5-6-5-6-5-6-5-6-|

Chorus:

G|-------------------------------------|
D|-------------------------------------|
A|-1111-111------------------5555-3333-|
E|---------1131-111-5555-555-----------|

G|-------------------------------------|
D|-------------------------------------|
A|-1111-111------------------5555-33/--|
E|---------1131-111-5555-555-----------|
[ Tab from: http://www.guitartabs.cc/tabs/a/ash/evil_eye_btab.html ]
G|-------------------------------------|
D|-------------------------------------|
A|-1111-111------------------5555-3333-|
E|---------1131-111-5555-555-----------|

G|-------------------------------------------|
D|-------------------------------------------|
A|-1111-111----------------------------------|
E|---------1131-111-5555-555-5-6-5-6-5-6-5---|

Solo:

G|-----------------|
D|-----------------|
A|-5-3-0--------5--| x2
E|--------5-3-1----|

Bridge: x2

G|---------------------------------|
D|---------------------------------|
A|-----------------3-3-3-6-5-5-5-5-| x2
E|-6-6-6-6-6-3-6-3-----------------|


G|---------------------------------|
D|---------------------------------|
A|-----------------3-3-3-3-8-8-8-8-|
E|-6-6-6-6-6-3-6-3-----------------|

G|---------------------------------|
D|---------------------------------|
A|-7-7-7-7-7-7-7-7-6-6-6-6-6-6-6-6-|
E|---------------------------------|

Chorus:

G|-------------------------------------|
D|-------------------------------------|
A|-1111-111------------------5555-3333-|
E|---------1131-111-5555-555-----------|

G|-------------------------------------|
D|-------------------------------------|
A|-1111-111------------------5555-33/--|
E|---------1131-111-5555-555-----------|

G|-------------------------------------|
D|-------------------------------------|
A|-1-------------------------5555-3333-|
E|---------1131-111-5555-555-----------|

G|-------------------------------------|
D|-------------------------------------|
A|-1111-111------------------5555-3333-| x2
E|---------1131-111-5555-555-----------|

G|--------------------------------------------|
D|--------------------------------------------|
A|-1111-111-----------------------------------|
E|---------1131-111-5555-555-5-6-5-6-5-6-5--6-|
Comments