Ash - Detonator Chords & Tabs

 

Detonator Chords & Tabs

Ash Chords & Tabs

Version: 1 Type: Tab 0 ratings
1 star 2 stars 3 stars 4 stars 5 stars
comments

Detonator Tab

   
Song: Detonator
Artist: Ash
Tabber: Zeidrich

I'm on a tabbing spree today lol, this is my third tab today

Drop D Tuning

Intro

e|-------------------------|
B|-------------------------|
G|-7--5--7--8--7--5--7--9--|
D|-7--3--5--8--7--3--5--7--|
A|-5--------6--5-----------|
D|-------------------------|

e|-------------------------|
B|-------------------------|
G|-------------------------|
D|-0-0-0--3-3--2-2-2-------|
A|-0-0-0--3-3--2-2-2-3-4---| x4
D|-0-0-0--3-3--2-2-2-----5-|

On second time on this part ^ 2nd guitar bends 7 on G-string

Verse:
(Palm Mute)

e|-------------------------|
B|-------------------------|
G|-------------------------|
D|-------------------------|
A|-------------------3-4---| x4
D|-0-0-0--3-3--2-2-2-----5-|

(End Palm muting)
e|---------------------------|
B|---------------------------|    2nd guitar bends 7 on G-string again
G|---------------------------|
D|-0-0-0--3-3--2-2-2---------|
A|-0-0-0--3-3--2-2-2-3-4-----| x3
D|-0-0-0--3-3--2-2-2-----5---|

e|-------------------------|
B|-------------------------|
G|-------------------------|
D|-0-0-0--3-3--2-2-2-------|
A|-0-0-0--3-3--2-2-2-----3-|
D|-0-0-0--3-3--2-2-2-2-5---|

Chorus:

e|---------------------------------|
B|---------------------------------|
G|-5-5-5-5---------4-4-4-4-9-9-9-9-|
D|-5-5-5-5-5-5-5-5-4-4-4-4-9-9-9-9-|
A|-3-3-3-3-5-5-5-5-2-2-2-2-7-7-7-7-|
D|---------5-5-5-5-----------------|

e|---------------------------------|
B|---------------------------------|
G|-5-5-5-5---------4-4-4-4---------|
D|-5-5-5-5-5-5-5-5-4-4-4-4-2-2-2-2-|
A|-3-3-3-3-5-5-5-5-2-2-2-2-2-2-2-2-|
D|---------5-5-5-5---------2-2-2-2-|

e|---------------------------------|
B|---------------------------------|
G|-5-5-5-5---------4-4-4-4-9-9-9-9-|
D|-5-5-5-5-5-5-5-5-4-4-4-4-9-9-9-9-|
A|-3-3-3-3-5-5-5-5-2-2-2-2-7-7-7-7-|
D|---------5-5-5-5-----------------|


e|---------------------------------|
B|---------------------------------|
G|-5-5-5-5---------4-4-4-4-4-4-4-4-|
D|-5-5-5-5-5-5-5-5-4-4-4-4-4-4-4-4-|
A|-3-3-3-3-5-5-5-5-2-2-2-2-2-2-2-2-|
D|---------5-5-5-5-----------------|

Bridge:

e|-------------------------|
B|-------------------------| 2nd guitar bending 7th on G
G|-------------------------|
D|-0-0-0--3-3--2-2-2-------|
A|-0-0-0--3-3--2-2-2-3-4---| x2
D|-0-0-0--3-3--2-2-2-----5-|

Verse:
(palm muted)
e|-------------------------|
B|-------------------------|    2nd guitar bending 7th on G
G|-------------------------|    2nd time round
D|-------------------------|
A|-------------------3-4---| x3
D|-0-0-0--3-3--2-2-2-----5-|

              (end palm mute)
e|-------------------------|
B|-------------------------|
G|-------------------------|
D|-------------2-2-2-------|
A|-------------2-2-2-----3-|
D|-0-0-0--3-3--2-2-2-2-5---|

Chorus:

e|---------------------------------|
B|---------------------------------|
G|-5-5-5-5---------4-4-4-4-9-9-9-9-|
D|-5-5-5-5-5-5-5-5-4-4-4-4-9-9-9-9-|
A|-3-3-3-3-5-5-5-5-2-2-2-2-7-7-7-7-|
D|---------5-5-5-5-----------------|

e|---------------------------------|
B|---------------------------------|
G|-5-5-5-5---------4-4-4-4---------|
D|-5-5-5-5-5-5-5-5-4-4-4-4-2-2-2-2-|
A|-3-3-3-3-5-5-5-5-2-2-2-2-2-2-2-2-|
D|---------5-5-5-5---------2-2-2-2-|

e|---------------------------------|
B|---------------------------------|
G|-5-5-5-5---------4-4-4-4-9-9-9-9-|
D|-5-5-5-5-5-5-5-5-4-4-4-4-9-9-9-9-|
A|-3-3-3-3-5-5-5-5-2-2-2-2-7-7-7-7-|
D|---------5-5-5-5-----------------|

[ Tab from: http://www.guitartabs.cc/tabs/a/ash/detonator_tab.html ]
e|---------------------------------|
B|---------------------------------|
G|-5-5-5-5---------4-4-4-4-4-4-4-4-|
D|-5-5-5-5-5-5-5-5-4-4-4-4-4-4-4-4-|
A|-3-3-3-3-5-5-5-5-2-2-2-2-2-2-2-2-|
D|---------5-5-5-5-----------------|

Pre Solo:

e|-------------------------|
B|-------------------------|
G|-7--5--7--8--7--5--7--9--|
D|-7--3--5--8--7--3--5--7--|
A|-5--------6--5-----------|
D|-------------------------|

Solo:

e|-----------------------------------------------8----|
B|-10tr13-13b15-13-10-13--12-13-12-10-------8b10------|
G|------------------------------------12-10--------12-|
D|----------------------------------------------------|
A|----------------------------------------------------|
D|----------------------------------------------------|

e|----------------------------------------|
B|----------------------------------------|
G|----------------------------------------|
D|-------10-------------------------------|
A|-10-11----11-10-8---------8---7b8r7b8r7-|
D|------------------8-7-6-1---1-----------|

e|------------------------------------11b13-13-|
B|-8b10-10-10--11b12-12--10b12-12-12-----------|
G|---------------------------------------------|
D|---------------------------------------------|
A|---------------------------------------------|
D|---------------------------------------------|

e|--20b22r20-17-15b17r15-13-10-----------------------------|
B|------------------------------12b13r12-8b10-10-8-6-------|
G|---------------------------------------------------7--7~-|
D|---------------------------------------------------------|
A|---------------------------------------------------------|
D|---------------------------------------------------------|

Verse:

Drums..

(palm muted)
e|------------------------|
B|------------------------|
G|------------------------|
D|------------------------|
A|------------------------|
D|-0-0-0--3-3--2-2-2------|

Drums...

(palm muted)
e|--------------------------|
B|--------------------------|
G|--------------------------|
D|--------------------------|
A|--------------------3-4---| x4
D|-0-0-0--3-3--2-2-2------5-|

e|-----------------------------------------------------------------|
B|-----------------------------------------------------------------|
G|-----------------------------------------------------------------|
D|-0-0-0-0-3-3-3-3-2-2-2-2-2-2-2-2-2-2-2-2-2-2-2-2-2-2-2-2-2-2-2-2-|
A|-0-0-0-0-3-3-3-3-2-2-2-2-2-2-2-2-2-2-2-2-2-2-2-2-2-2-2-2-2-2-2-2-|
D|-0-0-0-0-3-3-3-3-2-2-2-2-2-2-2-2-2-2-2-2-2-2-2-2-2-2-2-2-2-2-2-2-|


Chorus: x2

e|---------------------------------|
B|---------------------------------|
G|-5-5-5-5---------4-4-4-4-9-9-9-9-|
D|-5-5-5-5-5-5-5-5-4-4-4-4-9-9-9-9-|
A|-3-3-3-3-5-5-5-5-2-2-2-2-7-7-7-7-|
D|---------5-5-5-5-----------------|

e|---------------------------------|
B|---------------------------------|
G|-5-5-5-5---------4-4-4-4---------|
D|-5-5-5-5-5-5-5-5-4-4-4-4-2-2-2-2-|
A|-3-3-3-3-5-5-5-5-2-2-2-2-2-2-2-2-|
D|---------5-5-5-5---------2-2-2-2-|

e|---------------------------------|
B|---------------------------------|
G|-5-5-5-5---------4-4-4-4-9-9-9-9-|
D|-5-5-5-5-5-5-5-5-4-4-4-4-9-9-9-9-|
A|-3-3-3-3-5-5-5-5-2-2-2-2-7-7-7-7-|
D|---------5-5-5-5-----------------|


e|---------------------------------|
B|---------------------------------|
G|-5-5-5-5---------4-4-4-4-4-4-4-4-|
D|-5-5-5-5-5-5-5-5-4-4-4-4-4-4-4-4-|
A|-3-3-3-3-5-5-5-5-2-2-2-2-2-2-2-2-|
D|---------5-5-5-5-----------------|

Outro:

e|-------------------------|
B|-------------------------|
G|-4-4-4-4-4-4-4-4---------|
D|-4-4-4-4-4-4-4-4-2-2-0-2-|
A|-2-2-2-2-2-2-2-2-2-2-0-2-|
D|-----------------2-2-0-2-|
Comments