Ash - Detonator Chords & Tabs

 

Detonator Chords & Tabs

Ash Chords & Tabs

Version: 1 Type: Bass Tab 0 ratings
1 star 2 stars 3 stars 4 stars 5 stars
comments

Detonator Bass Tab

   
Song: Detonator
Artist: Ash
Tabber: Zeidrich

Drop D Tuning

Intro

G|-------------------------------------|
D|-------------------------------------|
A|-5-5-5-50-5-5-5-50-5-5-5-50-5-5-5-50-| x2
D|-------------------------------------|

G|-------------------------|
D|-------------------------|
A|-------------------3-4---| x4
D|-0-0-0--3-3--2-2-2-----5-|

Verse:

G|-------------------------|
D|-------------------------|
A|-------------------3-4---| x7
D|-0-0-0--3-3--2-2-2-----5-|

G|-------------------------|
D|-------------------------|
A|-----------------------3-|
D|-0-0-0--3-3--2-2-2-2-5---|

Chorus:


G|---------------------------------|
D|---------------------------------|
A|-3-3-3-3---------2-2-2-2-7-7-5-2-| x3
D|---------5-5-5-5-----------------|

G|----------------------------------|
D|-------------------------99999999-|
A|-3-3-3-3---------2-2-2-2----------|
D|---------5-5-5-5------------------|

Bridge:

G|-------------------------|
D|-------------------------|
A|-------------------3-4---| x2
D|-0-0-0--3-3--2-2-2-----5-|

Verse:

G|-------------------------|
D|-------------------------|
A|-------------------3-4---| x3
D|-0-0-0--3-3--2-2-2-----5-|

G|-------------------------|
D|-------------------------|
A|-----------------------3-|
D|-0-0-0--3-3--2-2-2-2-5---|

Chorus:

[ Tab from: http://www.guitartabs.cc/tabs/a/ash/detonator_btab.html ]
G|---------------------------------|
D|---------------------------------|
A|-3-3-3-3---------2-2-2-2-7-7-5-2-| x3
D|---------5-5-5-5-----------------|

G|----------------------------------|
D|-------------------------99999999-|
A|-3-3-3-3---------2-2-2-2----------|
D|---------5-5-5-5------------------|

Pre Solo:

G|-------------------------------------|
D|-------------------------------------|
A|-5-5-5-50-5-5-5-50-5-5-5-50-5-5-5-50-| x2
D|-------------------------------------|

Solo: (Basicly Verse)

G|-------------------------|
D|-------------------------|
A|-------------------3-4---| x6
D|-0-0-0--3-3--2-2-2-----5-|

Verse:

Drums..

G|------------------------|
D|------------------------|
A|------------------------|
D|-0-0-0--3-3--2-2-2------|

Drums...

G|--------------------------|
D|--------------------------|
A|--------------------3-4---| x4
D|-0-0-0--3-3--2-2-2------5-|

G|-----------------------------------------------------------------|
D|-----------------------------------------------------------------|
A|-------------------------7-7-7-7-7-7-7-7-7-7-7-7-7-7-7-7-7-7-7-7-|
D|-0-0-0-0-3-3-3-3-2-2-2-2-----------------------------------------|


Chorus: x2

G|---------------------------------|
D|---------------------------------|
A|-3-3-3-3---------2-2-2-2-7-7-5-2-| x3
D|---------5-5-5-5-----------------|

G|----------------------------------|
D|----------------------------------|
A|-3-3-3-3---------2-2-2-2-2-2-2-2--|
D|---------5-5-5-5------------------|

Outro:

G|-------------------------|
D|-9-9-9-9-9-9-9-9---------|
A|-------------------------|
D|-----------------2-2-0-2-|
Comments