Ash - Clones Chords & Tabs

 

Clones Chords & Tabs

Ash Chords & Tabs

Version: 3 Type: Tab 0 ratings
1 star 2 stars 3 stars 4 stars 5 stars
comments

Clones Tab

Ash - Clones
Not sure if this is right but is sort of sounds right
Tuning - C# F# B E G# C# - just because that is what my guitar is in at the moment,
but is sounds good and the heaviness of it sounds right

Not sure what the intro is but just play this when guitar 2 and bass do

|---------------------------| 
|---------------------------| 
|---------------------------| 
|--2---2-2---2---2-2--------| 
|--2---2-2---2---2-2---- ---|
|--0---0-0---0---0-0--------|

|-------------------------| 
|-------------------------| 
|-------------------------| x8
|-------------------------| 
|-6-3-6-3-6-3-5-3-5-3-5-3-| 
|-------------------------| 

|-------------------------| 
|-------------------------| 
|-------------------------| x4 
|-8-5-8-5-8-5-7-5-7-5-7-5-| 
|-------------------------| 
|-------------------------| 

Chorus

|------------------------
|------------------------
|-------00-00------------
|-66-88-22-22-66-88-22-6- x2
|-66-88-33-33-66-88-33-6- 
|-44-66-------44-66----4-

|-------------------------| 
|-------------------------| 
|-------------------------| 
|-------------------------| x2
|-6-3-6-3-6-3-5-3-5-3-5-3-| 
|-------------------------| 

|-------------------------| 
|-------------------------| 
|-------------------------| X2 
|-8-5-8-5-8-5-7-5-7-5-7-5-| 
|-------------------------| 
|-------------------------| 

Chorus





Shame, shame...... 
|-------------------------| 
|-------------------------| 
|-------------------------| X4 
|-------------------------| 
|-6-3-6-3-6-3-5-3-5-3-5-3-| 
|-------------------------| 


everyone's the same 
[ Tab from: http://www.guitartabs.cc/tabs/a/ash/clones_tab_ver_3.html ]
|-----------------------
|-----------------------
|------------8888-------
|-4444-4444--8888--8888-
|-4444-4444--6666--8888- 
|-2222-2222--------6666-

|-----------------------
|-----------------------
|------------8888-------
|-4444-4444--8888--6666-
|-4444-4444--6666--6666- 
|-2222-2222--------4444-

|-----------------------
|-----------------------
|-8888-8888-6666--------
|-8888-8888-6666-6666---
|-6666-6666-4444-6666---
|----------------4444---


|--------------------------| 
|--------------------------| 
|--------------------------| X6 
|--------------------------| 
|-6-3-6-3-6-3-5-3-5-3-5-3--| 
|--------------------------| 

|--------------------------| 
|--------------------------| 
|--------------------------| X4 
|-8-5-8-5-8-5-7-5-7-5-7-5--| 
|--------------------------| 
|--------------------------| 

Chorus

Everyone's the same x2 

|-------------------------| 
|-------------------------| 
|-------------------------| X2 
|-------------------------| 
|-6-3-6-3-6-3-5-3-5-3-5-3-| 
|-------------------------| 


Interlude - same as intro only the notes are played once, twice, twice, once.
Then palm mute this to the rhythm 

|-------| 
|-------| 
|--0----|
|--2----| 
|--3----|
|-------| 


|-------------------------| 
|-------------------------| 
|-------------------------| 
|-------------------------| x2
|-6-3-6-3-6-3-5-3-5-3-5-3-| 
|-------------------------| 

|-------------------------| 
|-------------------------| 
|-------------------------| X2 
|-8-5-8-5-8-5-7-5-7-5-7-5-| 
|-------------------------| 
|-------------------------|

Chorus

Everyone's the same x2

|-------------------------| 
|-------------------------| 
|-------------------------| 
|-------------------------| x4
|-6-3-6-3-6-3-5-3-5-3-5-3-| 
|-------------------------|


Please try it and tell me where I have gone wrong - crunchie36@hotmail.com
Comments