Ash - Cherry Bomb Chords & Tabs

 

Cherry Bomb Chords & Tabs

Ash Chords & Tabs

Version: 1 Type: Bass Tab 0 ratings
1 star 2 stars 3 stars 4 stars 5 stars
comments

Cherry Bomb Bass Tab

Artist: Ash
Song: Cherry Bomb
Album: Free All Angels

Intro/Verse:
G---------------------------------------------------------------------------|
D---------------------------------------------------------------------------|
A-------5-5-5--4-4-6-7------------------------------------------------------|
E-4-5-5---------------3-3---------------------------------------------------|
[ Tab from: http://www.guitartabs.cc/tabs/a/ash/cherry_bomb_btab.html ]
Pre-Chorus:
G----------------------------------------------------------------------------|
D----------------------------------------------------------------------------|
A-888888888888-5-55555--------------------------------3345-55----------------|
E---------------------3-33333-1-11111-1-11111-3-333333-----------------------|

Chorus:
G----------------------------------------------------------------------------|
D----------------------------------------------------------------------------|
A-777777-333333------555555----------------------333333-222222-222222--------|
E--------------333333------111111-111111-6\333333--------------------222-444-|

Outro:
G----------------|
D----------------|
A-----------444--|
E-222222-444-----|

Tabbed by M.Moloney
Comments