Ash - Burn Baby Burn Chords & Tabs

 

Burn Baby Burn Chords & Tabs

Ash Chords & Tabs

Version: 1 Type: Tab 0 ratings
1 star 2 stars 3 stars 4 stars 5 stars
comments

Burn Baby Burn Tab

   
Ash, Burn baby burn.
 Tabbed by Jehan Sauvage, googootabber@caramail.com.
  

#----------------------------------PLEASE NOTE---------------------------------#
#This file is the author's own work and represents their interpretation of the #
#song. You may only use this file for private study, scholarship, or research. #
#------------------------------------------------------------------------------##
#

artist : Ash
song : Burn baby burn
album : Free all angels

tabbed by Jehan Sauvage , send corrections to googootabber@caramail.com

note : nothing's special with this tab... There are two guitars.

/ : slide
b : bend
r : release bend
h : hammer
p : pull-off

chords : 
B5(x244xx)
E5(022xxx)
C#5(x466xx)
F#5(244xxx)
E5(x799xx)

INTRO :
guitar1 plays riff 1 four times
riff1 :
e/-11----11----11----11----11----11----11----11-12
b/----12----12----12----12----12----12----12--------
g/------------------------------------------------------------
d/------------------------------------------------------------
a/------------------------------------------------------------
E/------------------------------------------------------------
bass enters the third time.

PRE-VERSE 1 :
guitar1 plays riff1x4
guitar2 plays B5-E5-C#5-F#5 x4

VERSE 1 : (both guitars)
B5-E5-C#5-F#5 x3 (palm mute) then E5
B5-E5-C#5-F#5 x3 (without muting) then E5

CHORUS 1 : (both guitars)
F#5-B5-E5-C#5 x4 then F#5-B5-E5
There's a little break at the third time.
[ Tab from: http://www.guitartabs.cc/tabs/a/ash/burn_baby_burn_tab.html ]
PRE-VERSE 2 :
guitar1 plays riff1x2
guitar2 plays B5-E5-C#5-F#5 x2

VERSE 2 : 
guitar1 plays riff2x6
guitar2 plays same as verse 1
riff2 :
e/------------------------------------------------------------------------
b/-4----4----------------------------------------------------------------
g/----4----6/4/3-------------------------------------------------------
d/------------------------------------------------------------------------
a/------------------------------------------------------------------------
E/------------------------------------------------------------------------

CHORUS 2 : (both guitars)
same as chorus 1

BRIDGE first part :
guitar1 plays riff3x1
guitar2 plays B5-E5-C#5-F#5 x4 (palm mute)
riff3 :
e/-12-11-------------          e/-12-11-11/16-16b
b/-------11-12-------  x3 then b/----------------
g/-------------11-9--          g/----------------

BRIDGE second part :
guitar1 plays riff4x2
guitar2 plays E5-F#5 x3 (palm mute) then C#5
riff4 :
e/-12-11---------------
b/-------11-12---------
g/-------------11-11p9-
play slowly

VERSE 3 : (both guitars)
B5-E5-C#5-F#5 x3 then E5

CHORUS 3 : (both guitars)
same as other choruses

OUTRO :
guitar1 plays riff5x1
guitar2 plays E5
riff5:
e/-----------------------------------------------
b/-----------------------------------------------
g/--------------5-7-9-11-12-14-16-17-17-
d/-0-2-4-5-7----------------------------------
a/-----------------------------------------------
E/-----------------------------------------------
play each note several times
 
end on a E5.

NB : Sorry for the bad english 'cause I'm french...







 
:: Ultimate Guitar Archive :: 
http://www.ultimate-guitar.com 



Comments