Ash - Burn Baby Burn Chords & Tabs

 

Burn Baby Burn Chords & Tabs

Ash Chords & Tabs

Version: 1 Type: Bass Tab 0 ratings
1 star 2 stars 3 stars 4 stars 5 stars
comments

Burn Baby Burn Bass Tab

After listening to the song for a while and watching the music video,
i'm pretty sure this is rite... sides, didnt see any other bass tabs for this
song so i decided to make one :).

After the guitar intro, the bass comes in playing this... (Part 1)
G|--------------------------------------------------------
D|--------------------------------------------------------   x14
A|-2-2-2---------4-4-4------------------------------------
E|-------0-0-0-0-------2-2-2-2----------------------------

After that, bass plays... (Part 2)
G|--------------------------------------------------------
D|--------------------------------------------------------   x2
A|---------44444444--------22222222-----------------------
E|-22222222--------00000000-------------------------------
[ Tab from: http://www.guitartabs.cc/tabs/a/ash/burn_baby_burn_btab.html ]
The bass comes in after a very short break, and plays something twice, but
rather than tab incorrectly i'll let you experiment for yourself, sorry!
After all that he plays...
Pt.1 x10
Pt.2 x2
The part i can't tab...
During the guitar solo, play pt.1 x4

Afterwards, bass part is...
G|--------------------------------------------------------------
D|--------------------------------------------------------------
A|------------------------------------------------------44444444
E|-00000000-22222222-00000000-22222222-00000000-22222222--------

Pt.1 x4
Pt.2 x1

Outro
G|--------------------------------------------------------------
D|--------------------------------------------------------------
A|2-2-2-2-2-2-2-2-----------------------------------------------
E|-0-0-0-0-0-0-0-0----------------------------------------------

End on A|----2----

Tabbed By Benjamin K
any correction or comments are welcome, e-mail me: nunchux49@hotmail.com
Comments