Ash - A Life Less Ordinary Chords & Tabs

 

A Life Less Ordinary Chords & Tabs

Ash Chords & Tabs

Version: 1 Type: Tab 0 ratings
1 star 2 stars 3 stars 4 stars 5 stars
comments

A Life Less Ordinary Tab

   
От: for www.ultimate-guitar.com 
Кому: 
Тема: New Tabs
Дата: 19 июня 2000 г. 17:23

Ash, A Life Less Ordinary.
 Tabbed by Jordan Ogg, jordanogg@hotmail.com.
  
Ash 
A life Less Ordianary
Tabbed by Jordan Ogg

Heres the tab for this brilliant Ash single released in 1999.

Intro x4: Guitar 1 plays lead riff, Guitar 2 plays power chords.


---------------------------------------------------
---------------------------------------------------
--------0-------------0------------0-----------0---
------0---0--------0----0--------0----0------0---0-
----5-----------10-------------9----------9--------
--3-----------8--------------7----------7----------



Chords for Verse (Guitar 1): x4

G       C           B        B
------------------------------------
------------------------------------
--------5-----------4--------4------
-5------5-----------4--------4------
-5------3-----------2--------2-------
-3----------------------------------
I smoke myself into a hase........


Chords for Verse (Guitar2): x 4

G        C          B        B
-------------------------------------
-------------------------------------
-------------------------------------
-5-------10---------9--------9-------
-5-------10---------9--------9-------
-3-------8----------7--------7-------

[ Tab from: http://www.guitartabs.cc/tabs/a/ash/a_life_less_ordinary_tab.html ]
Pre-Chorus
    A7                D
----0-----------------2----------
----1-----------------3----------
----0-----------------2----------
----2-----------------0----------
----0----------------------------
---------------------------------
Star in the...        On my tongue.....
Before my eyes..      Beneath the sun........so,


Chorus part 1(x2)
    G            Em       Cm      D7
----3------------0--------3-------2------------
----3------------0--------4-------1------------
----4------------0--------5-------2------------
----5------------2--------5-------0------------
----5------------2--------3-------x------------
----3------------0--------x-------x------------
Take me in      your    arms      again...
Lead me in      my      dreams    again...


Chorus part 2
    G      Am       C       D7	 	B
----3------0--------x-------2--------  -----2--
----3------1--------0-------1--------  -----4--
----0------2--------0-------2--------  -----4--
----0------2--------2-------0--------  -----4--
----2------0--------3-------x--------  -----2--
----3------0--------x-------x--------  -----x--
Soul, 		Ill 	sell      my soul
What 	is 	it worth,           (only u know)         	


(Verse again)


(Pre-chorus again)


(Chorus Again)


Bridge (x8)
   Em
---0-
---0-
---0-
---2-
---2-
---0-


    A7		 G        C9      D7                        
----0-------3--------x-------2------    	
----1-------3--------3-------1------		
----0-------0--------0-------2------
----2-------0--------2-------0------	
----0-------2--------3-------x------	
----x-------3--------x-------x------

(Then play Chorus till end)


any comments or corrections to jordanogg@hotmail.com


 
:: Ultimate Guitar Archive :: 
http://www.ultimate-guitar.com 

Comments