Asg - Crosses Chords & Tabs

 

Crosses Chords & Tabs

Asg Chords & Tabs

Version: 2 Type: Tab

Crosses Tab

ASG - Crosses
Tabbed By TeeHeiMan302
E-mail possible feedback to TeeHeiMan302@aol.com

Intro
|----------------------------|
|----------------------------|
|----------------------------|
|----------------------------|
|----------------------------|
|-0000000000-3333333-2222222-|(x4)

P.M.
|------------------------|----|
|------------------------|----|
|------------------------|----|
|------------------------|----|
|-2222222222-5555555-4444|444-|
|-0000000000-3333333-2222|222-|(x3)

|---------------------------|
|---------------------------|
|---------------------------|
|---------------------------|
|-2222222222-5555555-44444/-|
|-0000000000-3333333-22222/-|

|-----------------------------------------------------------|
|--2-2-3-3----3-3----3-2-3----------------3-3-----3---------|
|--------------------------2--2-2-3-3-2-2-----2-2---2-x-2-1-|
|-----------------------------------------------------------|
|-2-------2-2------2----------------------------------------|
|-0-------0-0------0----------------------------------------|

|----------------------------------------------------|
|--2-2-3-3----3-3----3-2-3----------------3-3-----3/-|
|--------------------------2--2-2-3-3-2-2-----2-2----|
|----------------------------------------------------|
|-2-------2-2------2---------------------------------|
|-0-------0-0------0---------------------------------|

|P.M........| |...| |..| |..| |..|
|---------------------------------------|
|---------------------------------------|
|----------------------4----3----2----0-|
|-4--------------5-----4----3----2----0-|
|-4-222222222222-5-222-2-22-1-22-0-22-0-|
|-2-000000000000-3-000---00---00---00---|

|P.M........|
|------------------------|
|------------------------|
|------------------------|
|--------------5-4-3-2-0-|
|-222222222222-5-4-3-2-0-|
|-000000000000-3-2-1-0-0-|(x3)

|-----------------------------------------------------------|
|--2-2-3-3----3-3----3-2-3----------------3-3-----3---------|
|--------------------------2--2-2-3-3-2-2-----2-2---2-x-2-1-|
|-----------------------------------------------------------|
|-2-------2-2------2----------------------------------------|
|-0-------0-0------0----------------------------------------|
[ Tab from: http://www.guitartabs.cc/tabs/a/asg/crosses_tab_ver_2.html ]
|----------------------------------------------------|
|--2-2-3-3----3-3----3-2-3----------------3-3-----3/-|
|--------------------------2--2-2-3-3-2-2-----2-2----|
|----------------------------------------------------|
|-2-------2-2------2---------------------------------|
|-0-------0-0------0---------------------------------|

|P.M........| |...| |..| |..| |..|
|---------------------------------------|
|---------------------------------------|
|----------------------4----3----2----0-|
|-4--------------5-----4----3----2----0-|
|-4-222222222222-5-222-2-22-1-22-0-22-0-|
|-2-000000000000-3-000---00---00---00---|

|P.M........|
|------------------------|
|------------------------|
|------------------------|
|--------------5-4-3-2-0-|
|-222222222222-5-4-3-2-0-|
|-000000000000-3-2-1-0-0-|(x3)

P.M. .. .. .. ..
|-----------------------------------------|
|----------------------------3---3-3------|
|-----------------------------2-1---2-1-3-|
|-----------------------------------------|
|-222222222-22-22-22-22-22222-------------|
|-000000000-00-00-00-00-00000-------------|(x2)

P.M. .. .. .. ..
|-----------------------------|
|-----------------------------|
|-----------------------------|
|-----------------------------|
|-222222222-22-22-22-22-22222-|
|-000000000-00-00-00-00-00000-|(x2)

..........
|------------|
|------------|
|------------|
|------------|
|-2222222222/
|-0000000000/(x4)

............ ............
|------------------ |----------------|
|------------------ |----------------|
|------------------ |----------------|
|-4--------------5- |--------------5-|
|-4-222222222222-5- |-222222222222-5-|
|-2-000000000000-3- |-000000000000-3-|(x2)

.........
|-------------------|
|-------------------|
|----------------2b-|
|--------------1----|
|-222222222-1-2-----|
|-000000000---------|

............ ............
|------------------ |----------------|
|------------------ |----------------|
|------------------ |----------------|
|-4--------------5- |--------------5-|
|-4-222222222222-5- |-222222222222-5-|
|-2-000000000000-3- |-000000000000-3-|(x2)

.........
|-------------------|
|-------------------|
|----------------2b-|
|--------------1----|
|-222222222-1-2-----|
|-000000000---------|

Well this is my first tab and I think I have everything
right.  Don't have solo yet.  Please leave feedback and
rate it please!