Asg - Crosses Chords & Tabs

 

Crosses Chords & Tabs

Asg Chords & Tabs

Version: 1 Type: Tab 0 ratings
1 star 2 stars 3 stars 4 stars 5 stars
comments

Crosses Tab

pm.-.-.-.-.-.-.-.-.-.-.-.-.-.-.-.-.-.-.-.-.-.-.-.-.-.-.-.-.-.
--------------------------------------------------------------|x4 
--------------------------------------------------------------|
--------------------------------------------------------------| 
--------------------------------------------------------------|
--------------------------------------------------------------|
1-1-1-1-1-1-1-1-1-1-1-1-1-1-1-4-4-4-4-4-4-4-4-3-3-3-3-1-1-1-0-|


--------------------------------------------------------------|x4
--------------------------------------------------------------|
--------------------------------------------------------------|
--------------------------------------------------------------|
1-1-1-1-1-1-1-1-1-1-1-1-1-1-1-4-4-4-4-4-4-4-4-3-3-3-3-x-x-x-0-|
1-1-1-1-1-1-1-1-1-1-1-1-1-1-1-4-4-4-4-4-4-4-4-3-3-3-3-x-x-x-0-|

---------------------------------------------------------------------|x2
---------------------------------------------------------------------|
----3-3--4-4-----3-3-----------------------------6-6-----------------|
1-1----------1-1-----1-1--4-3-4------3-3-4-4-3-3------3-3---6---3-4--|
---------------------------------4-4-------------------------4-------|
---------------------------------------------------------------------|

----------------------------------------------|x4
----------------------------------------------|
----------------------------------------------|
1-1-1-1-1-1-1-1-1-1-1-1------7-----9-----5---3|
1-1-1-1-1-1-1-1-1-1-1-1------5-----7-----3---1|
1-1-1-1-1-1-1-1-1-1-1-1--0-----0-----0-----0--|

---------------------------------------------------------------------|x2
---------------------------------------------------------------------|
----3-3--4-4-----3-3-----------------------------6-6-----------------|
1-1----------1-1-----1-1--4-3-4------3-3-4-4-3-3------3-3---6---3-4--|
---------------------------------4-4-------------------------4-------|
---------------------------------------------------------------------|
[ Tab from: http://www.guitartabs.cc/tabs/a/asg/crosses_tab.html ]
----------------------------------------------|x4
----------------------------------------------|
----------------------------------------------|
1-1-1-1-1-1-1-1-1-1-1-1------7-----9-----5---3|
1-1-1-1-1-1-1-1-1-1-1-1------5-----7-----3---1|
1-1-1-1-1-1-1-1-1-1-1-1--0-----0-----0-----0--|

Pm.-.-.-.-.-.-.-.-.-.-.----------.----------
--------------------------------------------|x4
--------------------------------------------|
--------------------------------------------|
1-1-1-1-1-1-1-1-1-1-1-1-5-xx-7\5---7\5-5-5-5|
1-1-1-1-1-1-1-1-1-1-1-1-5-xx-7\5---7\5-5-5-5|
1-1-1-1-1-1-1-1-1-1-1-1-5-xx-7\5-0-7\5-5-5-5|


in between each time on the above set play this in this order.

------------------------------| play this after the first time
------------------------------|
------------------------------|
-12-11-10-11-15-10-11---------|
----------------------14------|
------------------------------|

------------------------------|
------------------------------|
------------------------------|Play this after the 2nd time
-15(8x)14(8x)13(8x)-----------|
-------------------15-14-14---|
------------------------------|

------------------------------|
------------------------------|Play this after the 3rd time
------------------------------|Play this after the forth time aswell but 
5-5-5-5-----------------------|with a little bit of wah
5-5-5-5-----------------------|
5-5-5-5-----------------------|


Pm.-.-.-.-.-.-.-.-.-.-.----------.----------
--------------------------------------------|x4
--------------------------------------------|
--------------------------------------------|
1-1-1-1-1-1-1-1-1-1-1-1-5-xx-7\5---7\5-5-5-5|
1-1-1-1-1-1-1-1-1-1-1-1-5-xx-7\5---7\5-5-5-5|
1-1-1-1-1-1-1-1-1-1-1-1-5-xx-7\5-0-7\5-5-5-5|


--------------------------------------------|
--------------------------------------------|
--------------------------------------------|
5-5-5-5-5-5-5-5-5-5-5-5---------------------|
5-5-5-5-5-5-5-5-5-5-5-5---------------------|
5-5-5-5-5-5-5-5-5-5-5-5-0-9\5---------------|

pm--.-.-.-.-.-.-.-.-.-.-.-.-.-.-.-.--
--------------------------------------------|
--------------------------------------------|
--------------------------------------------|
--5-1-1-1-1-1-1-1-1-1-1-1-1-1-1-1-1--5------|
--5-1-1-1-1-1-1-1-1-1-1-1-1-1-1-1-1--5------|
--5-1-1-1-1-1-1-1-1-1-1-1-1-1-1-1-1--5------|


pinched harmonics on 4th to 1st string
   7
  7
 6
5
-
-

the rest is same riffs repeated u figure it out
oh and the solo i will add l8er when im not lazy
Comments