Asfyxia - When Youre Gone Chords & Tabs

 

When Youre Gone Chords & Tabs

Asfyxia Chords & Tabs

Version: 1 Type: Tab 0 ratings
1 star 2 stars 3 stars 4 stars 5 stars
comments

When Youre Gone Tab

   
The band's website is http://www.asfyxia.tk

Song: When You're Gone
Band: Asfyxia

Intro: (Clean)
B-8---8---8---8-8-8-8-6---6---6---6-6-6--|
G--5-5-5-5-5-5---5-5-5-5-5-5-5-5-5---5-5-|

B-5---5---5---5-5-5-5-6---6---6---6-6-6--|
G--5-5-5-5-5-5---5-5-5-5-5-5-5-5-5---5-5-|

e---------7------------5------------3----|
B-8---8----8-8-6---6----6-6-5---5----5-5-|
G--5-5-5-5--5-5-5-5-5-5--5-5-5-5-5-5--5-5|

B-6-6-6-6-6-6-6-6-6-6-6-6---|
G-5-5-5-5-5-5-5-5-5-5-5-5-5-|
D-3-3-3-3-3-3-3-3-3-3-3-3-5-|
A-------------------------3-|

Verse: (clean)
C5
Your words keep running through my head
Bb5
From all the things we've ever said
F5
Am I the man I need to be
G5
Lord open my eyes so I can see
C5
'Cuz I can't just walk away
Bb5
When there's so much we've got left to say
F5
When there's so much left on my mind
G5
And the truth is still left to find

Chorus: (clean)
C                G
When you're gone away
C           G/C
I'm not the same
C        G
I'm lost today
C                          G/C C5
And I just wish to take it all away

Post Chorus: (distortion)
G-5-5-5--5--2h3-2-2------5-5-5--5--3-3-3-7-7-7-|
D-5-5-5--5--3-3-3-3-3-3--5-5-5--5--3-3-3-7-7-7-|
A-3-3-3--3--1-1-1-1-3-3--3-3-3--3--1-1-1-5-5-5-|
E-------------------1-1------------------------|

e---------------------------------3h5-3---|
B---------------------------------3h5-3---|
G-5-5-5--5--2h3-2-2------5-5-5--5-------5-|
D-5-5-5--5--3-3-3-3-3-3--5-5-5--5-------5-|
A-3-3-3--3--1-1-1-1-3-3--3-3-3--3-------3-|
E-------------------1-1-------------------|
[ Tab from: http://www.guitartabs.cc/tabs/a/asfyxia/when_youre_gone_tab.html ]
Verse: (clean)
C5
So I lay here thinking about the times I've had
Bb5
Through all the good and all the bad
F5
Through yesterdays memories
G5
To find out how I've come to be
C5
And I drift away to that special place
Bb5
And daydream of your pretty face
F5
And I just wish that you were near
G5
'Cuz I'm not the same without you here

Chorus: (clean)
C                G
When you're gone away
C           G/C
I'm not the same
C        G
I'm lost today
C                          G/C C5
And I just wish to take it all away

Bass solo (arranged for guitar):
D-5---5---5---5-5-5-5-3---3---3---3-3-3--|
A--3-3-3-3-3-3---3-3-3-3-3-3-3-3-3---3-3-|

D-2---2---2---2-2-2-2-3---3---3---3-3-3--|
A--3-3-3-3-3-3---3-3-1-1-1-1-1-1-1---1-1-|

Post Chorus: (distortion)
G-5-5-5--5--2h3-2-2------5-5-5--5--3-3-3-7-7-7-|
D-5-5-5--5--3-3-3-3-3-3--5-5-5--5--3-3-3-7-7-7-|
A-3-3-3--3--1-1-1-1-3-3--3-3-3--3--1-1-1-5-5-5-|
E-------------------1-1------------------------|

e---------------------------------3h5-3---|
B---------------------------------3h5-3---|
G-5-5-5--5--2h3-2-2------5-5-5--5-------5-|
D-5-5-5--5--3-3-3-3-3-3--5-5-5--5-------5-|
A-3-3-3--3--1-1-1-1-3-3--3-3-3--3-------3-|
E-------------------1-1-------------------|


|------------------------------|
      Chords used in song:
e------------------------------|
B-------------------1---8----1-|
G-5---3-------------0---7----0-|
D-5---3-----3---5---2---5----0-|
A-3---1-----3---5---3--------2-|
E-----------1---3------------3-|
  C5  Bb5   F5  G5  C   G   C/G
Comments