As I Lay Dying - Undefined Chords & Tabs

 

Undefined Chords & Tabs

As I Lay Dying Chords & Tabs

Version: 1 Type: Bass Tab

Undefined Bass Tab

-------------------------------------------------------------------------------
			   UNDEFINED - As I Lay Dying
-------------------------------------------------------------------------------

Tuning: CGFC

Intro:
|--------------|---------------|
|--------------|---------------|
|--------------|---------------|
|-0-----5--8-7-|-0--5--8--10-8-|


Verse:
|-----------------|-----------------|-----------------|-----------------|
|-----------------|-----------------|-----------------|-----------------|
|-----------------|-----------------|-----------------|-3-3-3-3-3-3-3-3-|
|-5-5-5-5-5-5-5-5-|-8-8-8-8-8-8-8-8-|-7-7-7-7-7-7-7-7-|-----------------|

|-----------------|-----------------|-----------------|-----------------|
|-----------------|-----------------|-----------------|-----------------|
|-----------------|-----------------|-5-5-5-5-5-5-5-5-|-3-3-3-3-3-3-3-3-|
|-5-5-5-5-5-5-5-5-|-8-8-8-8-8-8-8-8-|-----------------|-----------------|

 Play Twice
[ Tab from: http://www.guitartabs.cc/tabs/a/as_i_lay_dying/undefined_btab.html ]
|-----------------|-----------------|-----------------|-----------------|
|-----------------|-----------------|-----------------|-----------------|
|-----------------|-----------------|-----------------|-3-3-3-3-3-3-3-3-|
|-5-5-5-5-5-5-5-5-|-8-8-8-8-8-8-8-8-|-7-7-7-7-7-7-7-7-|-----------------| x4


Chorus:
|-------------------------------|
|-------------------------------|
|-------------------------------|
|-0-0-0-0----0-0-0-0----0-0-0-0-| x8

|-----------------|
|-----------------|
|-----------------|
|-0-0-0-0-0-0-0-0-| x16

|--------------|
|--------------|
|--------------|
|-0----0-0-0-0-|

|---------|
|---------|
|---------|
|-0-0-0-0-| x7


Verse:
|-----------------|-----------------|-----------------|-----------------|
|-----------------|-----------------|-----------------|-----------------|
|-----------------|-----------------|-----------------|-3-3-3-3-3-3-3-3-|
|-5-5-5-5-5-5-5-5-|-8-8-8-8-8-8-8-8-|-7-7-7-7-7-7-7-7-|-----------------|

|-----------------|-----------------|-----------------|-----------------|
|-----------------|-----------------|-----------------|-----------------|
|-----------------|-----------------|-5-5-5-5-5-5-5-5-|-3-3-3-3-3-3-3-3-|
|-5-5-5-5-5-5-5-5-|-8-8-8-8-8-8-8-8-|-----------------|-----------------|

 Play Twice


Outro:
|-----------------|
|-----------------|
|-----------------|
|-0-0-0-0-0-0-0-0-| x8