As I Lay Dying - Through Stuggle Break Down Only Chords & Tabs

 

Through Stuggle Break Down Only Chords & Tabs

As I Lay Dying Chords & Tabs

Version: 1 Type: Bass Tab 0 ratings
1 star 2 stars 3 stars 4 stars 5 stars
comments

Through Stuggle Break Down Only Bass Tab

   
b=bend/squeel
pm=palm mute or chug
NOTE: chug on all open notes on E. Also its hard to get a feel for breakdowns, listen to 
song and you'll get it.

--------------------------------------------------------------|
D-------------------------------------------------------------|
A-------------------------------------------------------------|
E-22222222--pm0000-0-0-0-0-00--0000-0-0-0-0-0--0000-0-0-0-0---|
[ Tab from: http://www.guitartabs.cc/tabs/a/as_i_lay_dying/through_stuggle_break_down_only_btab.html ]
--------------------------------------------------------------|
D----------------------b19------------------------------------|
A-------------------19----------------------------------------|
E-00--0000-0-0-0-0---------00-0000-0-0-0-0-00--0000-0-0-0-0---|

--------------------------------------------------------------|
D-------------------------------------------------------------|
A--------------------------------------------------19---------|
E-00--0000-0-0-0-0-00--0000-0-0-0-0-0--0000-0-0-0-0--000-000--|
Comments