As I Lay Dying - Repeating Yesterday Chords & Tabs

 

Repeating Yesterday Chords & Tabs

As I Lay Dying Chords & Tabs

Version: 2 Type: Tab

Repeating Yesterday Tab

                   GUITAR TAB: LOSING SIGHT; AS I LAY DYING

 D------------------------------------|
 A----3-------3-------3----3--------3-|
 F------------------------------------|
 C---0------0------0-----0------0-----|
 G--0-----0-------0-----0------0--0---|
 C------------------------------------|

 D------------------------------------------------------------------|
 A----3------3----3------3--------3------3----3---------3-----3-----|
 F------------------------------------------------------------------|
 C---0------0----0------0-----0--------0----0-----0---0--------0--0-|
 G--3------3----3------3-----3-3------1----1-----1--0-------0----0--|
 C------------------------------------------------------------------|

                   PLAY INTRO 6 TIMES BEFORE THIS
 D-------------------------------------------------------------------|
 A-------------------------------------------------------------------|
 F-------------------------------------------------------------------|
 C----5-5-5-5-5-5-5-5-3-3-3-3-2-2-2-2-3-3-3-3-3-3-3-3-2-2-2-2--------|
 G-----------------------------------------------------------3-3-3-3-|
 C-------------------------------------------------------------------|

 D--------------------------------------------------------------------|
 A--------------------------------------------------------------------|
 F--------------------------------------------------------------------|
 C----8-8-8-8-8-8-8-8-7-7-7-7-3-3-3-3-7-7-7-7-7-7-7-7-5-5-5-5-5-5-5-5-|
 G--------------------------------------------------------------------|
 C--------------------------------------------------------------------|
                     PLAY THIS 4 TIMES THEN GO TO THIS

[ Tab from: http://www.guitartabs.cc/tabs/a/as_i_lay_dying/repeating_yesterday_tab_ver_2.html ]
 D---------------------------------------------------------------------------|
 A---------------------------------------------------------------------------|
 F---------------------------------------------------------------------------|
 C-0000--7-7-7-7-0000--7h8-8-8-0000--7-7-7-7--0000--7h8-8-8--0000--7-7-7-7---|O
 G-0000----------0000----------0000-----------0000-----------0000------------|O
 C-0000----------0000----------0000-----------0000-----------0000------------|O

 D-------------------------------------------|
 A-------------------------------------------|
 F-------------------------------------------|
 C-000--7h8-8-8--0000--7-7-7-7-0000--7h8-8-8-|
 G-000-----------0000----------0000----------|
 C-000-----------0000----------0000----------|

 D---------------------|
 A---------15---17--18-|    (FIGURE OUT EXACT STROKES)
 F---------------------|
 C---------------------|
 G---------------------|
 C---------------------|
                          (THEN YOU DO THIS ANOTHER 4 TIMES)
 D-----------------------------|
 A-----------------------------|
 F-----------------------------|
 C-0000--7-7-7-7-0000--7h8-8-8-|
 G-0000----------0000----------|
 C-0000----------0000----------|

  (NEXT YOU DO THIS WHOLE THING FOUR TIMES)
 D------------------------------------------------------------------|
 A------------------------------------------------------------------|
 F------------------------------------------------------------------|
 C--5-5-5-5-5-5-5-5-3-3-3-3-2-2-2-2-3-3-3-3-3-3-3-3-2-2-2-2---------|
 G----------------------------------------------------------3-3-3-3-|
 C------------------------------------------------------------------|

 D------------------------------------------------------------------|
 A------------------------------------------------------------------|
 F------------------------------------------------------------------|
 C--8-8-8-8-8-8-8-8-7-7-7-7-3-3-3-3-7-7-7-7-7-7-7-7-5-5-5-5-5-5-5-5-|
 G------------------------------------------------------------------|
 C------------------------------------------------------------------|

 D----
 A----
 F----               (END WITH PIANO)
 C--0-
 G----
 C----