As I Lay Dying - Meaning In Tragedy Chords & Tabs

 

Meaning In Tragedy Chords & Tabs

As I Lay Dying Chords & Tabs

Version: 2 Type: Tab 0 ratings
1 star 2 stars 3 stars 4 stars 5 stars
comments

Meaning In Tragedy Tab

Well all i have to say is..... great band... great band soo um ya.
Any concerns/questions email me at ryan_garbutt7019@hotmail.com

Intro:

Guitar 1:

d---------------------------------|
a---------------------------------|
f---------------------------------|
c-0-----------------------7---5---|
g-0--7-----7-8---10-8-10----------|
c-0-----9--7-8--------------------|


Guitar 2 Intro:

d---------------------------------|
a---------------------------------|
f---------------------------------|
c-0----7-8----0---7--5---3--------|
g-0----7-8----0---7--5---3--------|
c-0----7-8----0---7--5---3--------|

Guitar 2 Cont.

d---------------------------------|
a---------------------------------|
f---------------------------------|
c-0--10-7-8-----0--10-7-5-3-------|
g-0--10-7-8-----0--10-7-5-3-------|
c-0--10-7-8-----0--10-7-5-3-------|

Both Guitars:

d---------------------------------|
a---------------------------------|
f---------------------------------|
c-0-----------------------7---5---|
g-0--7-----7-8---10-8-10----------|
c-0-----9--7-8--------------------|

d---------------------------------|
a---------------------------------|
f-7----14---12----9---------------|
c---------------------------------|
g-5----12---10----7---------------|
c---------------------------------|

Guitar 1:

d----------------------------------|
a----------------------------------|
f----------------------------------|
c----------------------------------|
g-------5-------8-------7-------10-|
c-0-0-0---0-0-0---0-0-0---0-0-0----|

Cont.
d----------------------------------|
a----------------------------------|
f----------------------------------|
c----------------------------------|
g-------5-------8-------7---8-7----|
c-0-0-0---0-0-0---0-0-0---0-----10-|

Guitar 2 Comes in
[ Tab from: http://www.guitartabs.cc/tabs/a/as_i_lay_dying/meaning_in_tragedy_tab_ver_2.html ]
d---------------------------------|
a---------------------------------|
f---------------------------------|
c---------------------------------|
g-0-0-0---00000---0-0-0---00000---|
c-0-0-0---00000---0-0-0---00000---|

Continued
d----------------------------------|
a----------------------------------|
f----------------------------------|
c----------------------------------|
g-0-0-0---00000-------------8-7----|
c-0-0-0---00000---5-5-5---8-----10-|


Both Guitars

d--------|
a--------|
f--------|
c--------|
g-7--8---|
c-7--8---|

Then back to intro.

Then

Both guitars:
Listen for the rythm

d---------------------------------|
a---------------------------------|
f-10-7-10-9-12-10-14-15-----------|
c---------------------------------|
g-8--5-8--7-10-8--12-13-----------|
c---------------------------------|

Do this twice


then

Im not to sure about this one so...

Guitar 1:

d--------------|
a--------------|
f--------------|
c-14---14h15---|
g---15---------|
c--------------|

d--------------------------------------|
a--------------------------------------|
f--------------------------------------|
c-0-0-17-0-0-15-0-0-14-0-0-15-0-0-14---|
g-----------------------------------15-|
c--------------------------------------|

While guitar 2 i think does
(listen for the changes)

d---------------|
a---------------|
f-10-12-15-14---|
c---------------|
g-8--10-13-12---|
c---------------|


Guitar 1

d------------------   -------------------|
a------------------   -------------------|
f------------------   -------------------|
c------------------x3 ---3---2----3-2----|
g---------------5--   ----------------3--|
c-0-0-300-300-0----   -0---0---0---------|

twice while guitar two:

c-0~---------------|
g-0~---------------|
c-0~---------------|


the guitar 2 kicks in with the same riff as
guitar 1

Sorry but im not to sure about the ending so.... cry about it
Comments