As I Lay Dying - Losing Sight Chords & Tabs

 

Losing Sight Chords & Tabs

As I Lay Dying Chords & Tabs

Version: 2 Type: Tab 0 ratings
1 star 2 stars 3 stars 4 stars 5 stars
comments

Losing Sight Tab

Tabbed By PeanutSandwich

Intro
d|----------------------------------------------------------------|
A|----------------------------------------------------------------|
F|----------------------------------------------------------------|
C|-----------------------------7p0------------------------------5-| x 4
G|-------------5h8-------8p5p0-----------------5h8------3-----3---|
C|-000-000-000-----000-0-----------000-000-000-----000-3--000-----|
pm ... ... ...     ... .           ... ... ...     ...    ...




d|-----------------------------------------------------------------|
A|-----------------------------------------------------------------|
F|-----------------------------------------------------------------|
C|-0-----------3h5---7---7---5---7---5---3---2---3---3---2---0-----|
G|-0-------------------------------------------------------------0-|
C|-0-0-000-000-----0---0---0---0---0---0---0---0---0---0---0---0---|
pm   . ... ...     .   .   .   .   .   .   .   .   .   .   .   .
										X 4
d|--------------------------------------------------------------------|
A|--------------------------------------------------------------------|
F|--------------------------------------------------------------------|
C|-0-----------3h5---7---7---5---10---8---7---5---8---7---5---3---2---|
G|-0------------------------------------------------------------------|
C|-0-0-000-000-----0---0---0---0---0----0---0---0---0---0---0---0---0-|
pm   . ... ...     .   .   .   .   .    .   .   .   .   .   .   .   .



[ Tab from: http://www.guitartabs.cc/tabs/a/as_i_lay_dying/losing_sight_tab_ver_2.html ]
d|-----------------------------------------------------------------|		\
A|-----------------------------------------------------------------|		|
F|-----------------------------------------------------------------|		|
C|-0---------------3---------------------------------------3p0-5p0-|		|
G|-0---------------------7---3---5-----------------5p0-3h5---------|		|
C|-0-0-0-0-0-0-0-0---0-0---0---0---0-0-0-0-0-0-0-0-----------------|		|
pm . . . . . . . .   . .   .   .   . . . . . . . .				|
										|
d|-----------------------------------------------------------------|		|
A|-----------------------------------------------------------------|		|
F|-----------------------------------------------------------------|		|
C|-0---------------3--------------------------------8~------10~----|		|
G|-0---------------------7---3---5------------------8~------10~----|		|
C|-0-0-0-0-0-0-0-0---0-0---0---0---0-0-0-0-0-0-0-0--8~------10~----|		|
pm . . . . . . . .   . .   .   .   . . . . . . . .				|
										|X 2
d|-----------------------------------------------------------------|		|
A|-----------------------------------------------------------------|		|
F|-----------------------------------------------------------------|		|
C|-0---------------3---------------------------------------3p0-5p0-|		|
G|-0---------------------7---3---5-----------------5p0-3h5---------|		|
C|-0-0-0-0-0-0-0-0---0-0---0---0---0-0-0-0-0-0-0-0-----------------|		|
pm . . . . . . . .   . .   .   .   . . . . . . . .				|
										|
d|-----------------------------------------------------------------|		|
A|-----------------------------------------------------------------|		|
F|-----------------------------------------------------------------|		|
C|-0---------------3-------------------------------------------2h3-|		|
G|-0---------------------7---3---5-------------------------0h3-----|		|
C|-0-0-0-0-0-0-0-0---0-0---0---0---0-0-0-0-0-0-0-0-0-0-0-0---------|		|
pm . . . . . . . .   . .   .   .   . . . . . . . . . . . .			/
Comments