As I Lay Dying - Losing Sight Chords & Tabs

 

Losing Sight Chords & Tabs

As I Lay Dying Chords & Tabs

Version: 1 Type: Tab 0 ratings
1 star 2 stars 3 stars 4 stars 5 stars
comments

Losing Sight Tab

Tuning: CGCFAD

D----------------------------------------------|
A----------------------------------------------|
F----------------------------------------------|
C-000-000-000---------000-0-----------7--------|
G-000-000-000---5-8---000-0---5-0-5-----4------|
C-000-000-000---------000-0--------------------|
  ... ... ...         ... .

D----------------------------------------------|
A----------------------------------------------|
F----------------------------------------------|
C-000-000-000---------000-------000---2--------|
G-000-000-000---5-8---000---3---000-0----------|
C-000-000-000---------000-3-----000------------|
  ... ... ...         ...       ...

D-----------------------------------------------|
A-----------------------------------------------|
F-----------------------------------------------|
C-0---0-000-000---------7-7-5---7-5-------------|
G-0---0-000-000--8-10---------------8-7-8-8-7-3-|
C-0---0-000-000-------0--0-0--0--0---0-0-0-0-0--|
      . ... ...       .  . .  .  .   . . . . .

D----------------------------------------------|
A----------------------------------------------|
F----------------------------------------------|
C-0--000-000-------7-7-5---10-8-------8-7------|
G-0--000-000--8-10--------------12-10-----10-8-|
C-0--000-000------0-0-0------8-8--8--8-7-7--7--|
     ... ...      . . .      . .  .  . . .  .

D----------------------------------------------|
A----------------------------------------------|
F----------------------------------------------|
C-0-000000-------------------------------------|
G-0-000000---8----7----------------------------|
C-0-000000-----00---0-10-00--------------------|
    ......     ..   .    ..
[ Tab from: http://www.guitartabs.cc/tabs/a/as_i_lay_dying/losing_sight_tab.html ]
D----------------------------------------------|
A----------------------------------------------|
F----------------------------------------------|
C-0-000000-----------7---10--------------------|
G-0-000000---5p0-5/8---7----7------------------|
C-0-000000-------------------------------------|
    ......

D----------------------------------------------|
A----------------------------------------------|
F----------------------------------------------|
C-0-000000-------------------------------------|
G-0-000000---8----7----------------------------|
C-0-000000-----00---0-10-00--------------------|
    ......     ..   .    ..

D----------------------------------------------|
A----------------------------------------------|
F----------------------------------------------|
C-0-000000---7777-10101010---------------------|
G-0-000000---7777-10101010---------------------|
C-0-000000-------------------------------------|
    ......


D----------------------------------------------|
A----------------------------------------------|
F----------------------------------------------|
C-000-000-000---------000-000-----------7------|
G-000-000-000---5-8---000-000---5-0-5-----4----|
C-000-000-000---------000-000------------------|
  ... ... ...         ... ...

D----------------------------------------------|
A----------------------------------------------|
F-----------------------------7---10-----------|
C-000-000-000---------7---------7----7---------|
G-000-000-000---5-8-----8-7-8------------------|
C-000-000-000----------------------------------|
  ... ... ...         . . . .

D----------------------------------------------|
A----------------------------------------------|
F----------------------------------------------|
C-000-000-000---------000-000-----------7------|
G-000-000-000---5-8---000-000---5-0-5-----4----|
C-000-000-000---------000-000------------------|
  ... ... ...         ... ...

D----------------------------------------------|
A----------------------------------------------|
F----------------------------------------------|
C-000-000-000---------0-0-000-000-------7------|
G-000-000-000---5-8---0-0-000-000-0-5-7--------|
C-000-000-000---------0-0-000-000--------------|
  ... ... ...         . . ... ...
Comments