As I Lay Dying - Forever Chords & Tabs

 

Forever Chords & Tabs

As I Lay Dying Chords & Tabs

Version: 4 Type: Tab 0 ratings
1 star 2 stars 3 stars 4 stars 5 stars
comments

Forever Tab

   
-------------------------------------------------------------------------------
			     Forever - As I Lay Dying
-------------------------------------------------------------------------------
Tabbed by: Joe Bell 
Email:barqs_got_bite@hotmail.com

I Submitted this tab already, but i found a big mistake on it that i fixed on this one.

Tuning:CGCFAD

0:01
D|------------------------------------------------------|
A|------------------------------------------------------|
F|------------------------------------------------------|<-4X
C|------------------------------------------------------| 
G|--00-88-77-55--00-88-77-55--33-88-77-55-1010-88-77-88-|
C|--00-----------00-----------33------------------------|
PM  --           --           --

0:23
D|-----------------------------------|
A|-----------------------------------|
F|--------------7/10-10-10-10\9-9/12-|<-2X
C|-----------------------------------|
G|-00-00000-00--5/8--8--8---8\7-7/10-|
C|-00-00000-00-----------------------|
PM -- ----- --

0:34
Lead Guitar Plays:
D|-------------------------------|
A|-------------------------------|
F|-109---109---9/12-109-9h10p9---|<-2X
C|----10----10----------------10-|
G|-------------------------------|
C|-------------------------------|


0:34
Rhythm PLays:
D|-----------------------------------|
A|-----------------------------------|
F|--------------7/10-10-10-10\9-9/12-|<-2X
C|-----------------------------------|
G|-00-00000-00--5/8--8--8---8\7-7/10-|
C|-00-00000-00-----------------------|
PM -- ----- --

0:45
D|------------------|
A|------------------|
F|------------------|
C|------------------|
G|-0-0-0-\Pickslide-|
C|-0-0-0-\Pickslide-|

0:50
D|----------------------------------------------------------|
A|----------------------------------------------------------|
F|10\9-5--10\9-5------9-10-12-14-15-14-12-10-10\9-5--10\9-5-|<-2X
C|---------------[2X]---------------------------------------|
G|-8\7-3---8\7-3------7-8--10-12-13-12-10-8---8\7-3---8\7-3-|
C|----------------------------------------------------------|

1:12
D|--------------------------------------------|
A|--------------------------------------------|
F|--------------------------------------------|
C|-3-3333333333333----------------------------|
G|-1-1111111111111----------------------------|
C|--------------------------------------------|
PM   -------     <- Gradually let off PM

1:15
D|------------------------------------------------------|
A|------------------------------------------------------|
F|------------------------------------------------------|<-4X
C|------------------------------------------------------| 
G|--00-88-77-55--00-88-77-55--33-88-77-55-1010-88-77-88-|
C|--00-----------00-----------33------------------------|
PM  --           --           --

1:36
D|-----------------------------------|
A|-----------------------------------|
F|--------------7/10-10-10-10\9-9/12-|<-2X
C|-----------------------------------|
G|-00-00000-00--5/8--8--8---8\7-7/10-|
C|-00-00000-00-----------------------|
PM -- ----- --

1:47
Lead Guitar Plays:
D|-------------------------------|
A|-------------------------------|
F|-109---109---9/12-109-9h10p9---|<-2X
C|----10----10----------------10-|
G|-------------------------------|
C|-------------------------------|

1:47
Rhythm PLays:
D|-----------------------------------|
A|-----------------------------------|
F|--------------7/10-10-10-10\9-9/12-|<-2X
C|-----------------------------------|
G|-00-00000-00--5/8--8--8---8\7-7/10-|
C|-00-00000-00-----------------------|
PM -- ----- --

1:59
D|------------------------------------------------------------------|
A|------------------------------------------------------------------|
F|10\9-5--10\9-5---------------------10\9-5--10\9-5---------10-9-12-|
C|---------------[2X]--10-8-7--8-7-5-----------------10-8-7---------|
G|-8\7-3---8\7-3----------------------8\7-3---8\7-3-----------------|
C|------------------------------------------------------------------|
[ Tab from: http://www.guitartabs.cc/tabs/a/as_i_lay_dying/forever_tab_ver_4.html ]
2:01
D|--------------------------------------------------------------|
A|--------------------------------------------------------------|
F|------------------10-9--10---------------10-9--12-10-9-10-9---|<-2X
C|-8-7-8-10-8-7[2X]-----10----8-7-8-10-8-7-----10------------10-|
G|--------------------------------------------------------------|
C|--------------------------------------------------------------|

2:23
D|---------------------------------------------------------------------|
A|---------------------------------------------------------------------|
F|----------------------------------------------10-9--12-10-9-10-9-----|
C|------------ 3-33-33-33------------8-7-8-10-8-7-----10------------10-|
G|-0-00-00-00--1-11-11-11-0-00-0-00------------------------------------|
C|-0-00-00-00-------------0-00-0-00------------------------------------|
PM - -- -- --  - -- -- -  - -- - --

2:35
D|-------------------------------------------------------|
A|-------------------------------------------------------|
F|----------10-9--10-9--10----------10-9--12-10-9-10-9---|<-2X
C|--------------10----10---33-33-33-----10------------10-|
G|-00-00-00----------------11-11-11----------------------|
C|-00-00-00----------------------------------------------|

2:45
D|----------------------------------------------------------|
A|----------------------------------------------------------|
F|-----------10-9--10-9--10------------10-9--12-10-9-10-9---|<-2X
C|---------------10----10---3-33-33-33-----10------------10-|
G|-0-00-00-00---------------1-11-11-11----------------------|
C|-0-00-00-00-----------------------------------------------|
PM - -- -- --               - -- -- 

2:56
D|----------------------------------------------------------------|
A|----------------------------------------------------------------|
F|----------------------------------------------------------------|<-3X
C|----------------------------------------------------------------|
G|-8-8888-7-7777-10-10101010-8-8888---8-8888-7-7777-5-5555-8-8888-|
C|-0-0000-0-0000--0-0-0-0-0--0-0000---0-0000-0-0000-0-0000-0-0000-|
     v^v^   v^v^    v ^ v ^    v^v^     v^v^   v^v^   v^v^   v^v^

3:21
D|-----------------------------------|
A|-----------------------------------|
F|-----------------------------------|
C|-----------------------------------|
G|-8-8888-7-7777-10-10101010-8-8888--|
C|-0-0000-0-0000--0-0-0-0-0--0-0000--|
     v^v^   v^v^    v ^ v ^    v^v^     

3:25
Rythm plays:
D|--------------------------|
A|--------------------------|
F|10--9--7-10--10--9--12-10-|<-3X
C|--------------------------|
G|-8--7--5--8---8--7--10--8-|
C|--------------------------|

3:38
Lead Plays:   
D|-----------------------------------------------------------------------|
A|-----------------------------------------------------------------------|
F|-------------------10-9--12-10-9--------------------10-9--12-10-9-[2X]-|
C|-8-7-8-10-8-7-[3X]-----10---------8-7-8-10-8-7-[2X]-----10-------------|
G|-----------------------------------------------------------------------|
C|-----------------------------------------------------------------------|

3:50
D|-------------|
A|-------------|
F|10--9--12-10-|
C|-------------|
G|-8--7--10--8-|
C|-------------|

3:54
D|------------------------------------------------------------|
A|------------------------------------------------------------|
F|1010101010-9-9999-7-7777-7-7777-7-7777-7-7777-3-3333-3-3333-|<-4X
C|------------------------------------------------------------|
G|-8-8-8-8-8-7-7777-5-5555-5-5555-3-3333-3-3333-1-1111-1-1111-|
C|------------------------------------------------------------|
     v ^ v ^   v^v^   v^v^   v^v^   v^v^   v^v^   v^v^   v^v^ 

4:27
D|---|
A|---|
F|---|
C|---|
G|---|
C|-0-| <- Let it ring
============================================================================
| /  slide up
| \  slide down
| h  hammer-on
| p  pull-off
| PM Palm Muting
| ^  Strum Up    (If there isn't anything under the note )
| v  Strum Down  (to tell you how to strum,strum normally)
============================================================================
Comments