As I Lay Dying - Forever Chords & Tabs

 

Forever Chords & Tabs

As I Lay Dying Chords & Tabs

Version: 3 Type: Tab 0 ratings
1 star 2 stars 3 stars 4 stars 5 stars
comments

Forever Tab

   
Band : As I Lay Dying
Song : Forever
Album: Frail Words Collapse

tabbed by victim no 09321

Intro
D||-----------------------------------------------|
A||-----------------------------------------------|
G||-----------------------------------------------|
C||-------3-2-0-------3-2-0-------3-2-0-5-3-2-3---| 4x
G||--0-0---------0-0---------3-3------------------|
C||--0-0---------0-0---------3-3------------------|
PM   x x         x x         x x


D||--------------------------------------------------------|
A||--------------------------------------------------------|
F||---------------7/10-10/9-12---------------7/10-10/9-5---|
C||---------------x-x---x-x-x----------------x-x---x-x-x---| 2x
G||--00-00000-00--5/8---8/7-10--00-00000-00--5/8---8/7-3---|
C||--00-00000-00----------------00-00000-00----------------|
PM   xx xxxxx xx                xx xxxxx xx


D||------------------------------------| Play that (^^^) 2
A||------------------------------------| more times with this
F||--10p9---10p9---10/12-10-9-9h10p9---| instead of the open
C||------10-----10---------------------| part.
G||------------------------------------|
C||------------------------------------|

============================================================

D||---------------------------|
A||---------------------------|
F||---------------------------|
C||--0~-0~-0~-//pickslide//---|
G||--0~-0~-0~-----------------|
C||--0~-0~-0~-----------------|


                    (play this part (vVv) 2x)
D||----------------||----------------------------------------------------|
A||----------------||----------------------------------------------------|
F||--10/9-5--------||--10/9-5------9-10-12-14-15-14-12-10--10/9-5--------|
C||---x-x-x- 2x ---||---x-x-x- 2x -x-x--x--x--x--x--x--x----x-x-x- 2x ---|
G||---8/7-3--------||---8/7-3------7-8--10-12-13-12-10-8----8/7-3--------|
C||----------------||----------------------------------------------------|


D||-----------------|
A||-----------------|
F||-----------------|
C||--333333333333---|
G||--111111111111---|
C||-----------------|
PM    xxxxxxxxxxx

------------------------------------------------------------
Start over until the "========", then go here (vVv)

D||-----------------------------------------------------------|
A||-----------------------------------------------------------|
F||--9/10-5---------------------9/10-5--------------10-9-12---|
C||--x-x--x- 4x --10-8-7-8-7-5--x-x--x- 2x --10-8-7-----------|
G||--7/8--3---------------------7/8--3------------------------|
C||-----------------------------------------------------------|
[ Tab from: http://www.guitartabs.cc/tabs/a/as_i_lay_dying/forever_tab_ver_3.html ]
SOLO!!!!!!!!!!!!!!!!!!!!
D||----------------------------------------------------------------------------|
A||----------------------------------------------------------------------------|
F||------------------------10-9----10----------------10-9----12-10-9-10-9------|
C||--8-7-8-10-8-7-8-10-8-7------10------8-7-8-10-8-7------10--------------10---| 2x
G||----------------------------------------------------------------------------|
C||----------------------------------------------------------------------------|

D||--------------------------------------------------------------------------|
A||--------------------------------------------------------------------------|
F||------------------------------------------------10-9----12-10-9-10-9------|
C||-----------------------------------8-7-8-10-8-7------10--------------10---|
G||--0-000-00x--8-888-88~--0-000-00x-----------------------------------------|
C||--0-000-00x--8-888-88~--0-000-00x-----------------------------------------|
PM   x xxx xx   x xxx xx   x xxx xx

D||-----------------------------------------------------------------------------|
A||-----------------------------------------------------------------------------|
F||----------------------10-9--10-9--10----------------------10-9--12-10-9-10---|
C||--------------------------10----10----10--10-10-10--10-10-----10-------------| 2x
G||--12--12-12-12--12-12------------------8---8--8--8---8--8--------------------|
C||--12--12-12-12--12-12--------------------------------------------------------|

D||---------------------------------------------------------|
A||---------------------------------------------------------|
F||------------10-9--10-9--10------------10-9--12-10-9-10---|
C||----------------10----10------------------10-------------| 2x
G||--0-000-00x-----------------8-888-88~--------------------|
C||--0-000-00x-----------------8-888-88~--------------------|
PM   x xxx xx                  x xxx xx

D||------------------------------------| ( A = strum             
A||------------------------------------|  "down, down up down up")
F||------------------------------------|
C||----------3-2-0-2----------3-2-0-2--|
G||--8-7-5-7-1-1-1-1-8-7-10-8-1-1-1-1--|
C||--0-0-0-0---------0-0--0-0----------|
     A A A A A A A A A A  A A A A A A

D||-----------------------------|           
A||-----------------------------|
F||-----------------------------|
C||----------3-2-0-2------------|
G||--8-7-5-7-1-1-1-1-8-7-10-8---|
C||--0-0-0-0---------0-0--0-0---|
     A A A A A A A A A A  A A

D||------------------------|          
A||------------------------|
F||--10-9-7-9-10-9-12-10---|
C||--x--x-x-x--x-x-x---x---| 2x
G||--8--7-5-7--8-7-10--8---|
C||------------------------|
     A  A A A  A A A   A

D||---------------------|      
A||---------------------|
F||--10--9-7-7-5-5-10---|
C||---x--x-x-x-x-x--x---| 2x
G||---8--7-5-5-3-3--8---|
C||---------------------|
      A  A A A A A  A
Comments