As I Lay Dying - Empty Hearts Chords & Tabs

 

Empty Hearts Chords & Tabs

As I Lay Dying Chords & Tabs

Version: 1 Type: Tab 0 ratings
1 star 2 stars 3 stars 4 stars 5 stars
comments

Empty Hearts Tab

   
--------------------------------------------------------------------------
			     EMPTY HEARTS V As I Lay Dying
---------------------------------------------------------------------------
Tabbed by:	ARGE
			(     SORRY NO SOLO	)
[ Tab from: http://www.guitartabs.cc/tabs/a/as_i_lay_dying/empty_hearts_tab.html ]
Tuning: CGCFAD
		
INTRO -	Repeat 8x but every 4x hit the 0 once at the end -
D|------------------------------------------------------|
A|------------------------------------------------------|
F|------------------------------------------------------|
C|------------------------------------------------------|
G|--6h9p6---5h8p5---6h9p6---5h8p5-----------------------|
C|--------0-------0-------0-------00--------------------|
                                  ..
	4x					2x     end
D|---------------|------10-------------------------|-----|
A|---------------|---------------------------------|-----|
F|---------------|---------------------------------|-----|
C|-0000-0000-0-0-|-0000----0000-0-0--0000-0000-0-0-|--0~-|
G|-0000-0000-0-0-|-0000----0000-0-0--0000-0000-0-0-|--0~-|
C|-0000-0000-0-0-|-0000----0000-0-0--0000-0000-0-0-|--0~-|
   .... .... . .   ....    .... . .  .... .... . .
		4x
D|--------------------------------------------|
A|--------------------------------------------|
F|--------------------------------------------|
C|--------------------------------------------|
G|--6h9---5h8---6h9---5h8p5-------------------|
C|------0-----0-----0-------000000------------|
        .     .     .       ......
	2x 
D|---|---------------------------------------------------------------------|
A|---|---------------------------------------------------------------------|
F|---|---------------------------------------------------------------------|
C|---|-----------------------------------------------------8----7----------|
G|-5-|------5------------55--------5------------65------------------8---65-|
C|---|00000---00-6-0-3-0----000000---00-6-0-3-0----000000----00---0---0----|
       .....   ..   .   .    ......   ..   .   .    ......    ..   .   .
   End on 
D|---------------------|
A|---------------------|
F|---------------------|
C|-------------00------|
G|--5----------00------|
C|----00-6-0-3-00------|
      ..   .   ..

D|--------------------------------------------------------------|
A|--------------------------------------------------------------|
F|--------------------------------------------------------------|
C|--------------------------------------------------------------|
G|---------9p6---8p5---56---9p6--------6985---9p6---------------|
C|--000000-----0-----0----0-----000000------6-----000000--------|
    ......     .     .    .     ......            ......

		SORRY NO SOLO  
					12x 
D|------------------------------------------------------------------------|
A|------------------------------------------------------------------------|
F|------------------------------------------------------------------------|
C|------------------------------------------------------------------------|
G|--9p6---5---9---8---5---6X-9p6--56-------------------------------------|
C|------0---0---0---0---0-------------------------------------------------|


Ummm... have fun with this tab 

| / slide up
| \ slide down
| H hammer-on
| P pull-off
| ~ vibrato
| + harmonic
| . Mute note
===========================================================================
Comments