As I Lay Dying - Confined Chords & Tabs

 

Confined Chords & Tabs

As I Lay Dying Chords & Tabs

Version: 1 Type: Tab 0 ratings
1 star 2 stars 3 stars 4 stars 5 stars
comments

Confined Tab

Drop C tuning

intro 1 (first half feedback)
gtr.1
|----------------------------------------------------------------|
|----------------------------------------------------------------|
|----------------------------------------------------------------|
|----------------------------------------------------------------|
|----------------------------------------------------------------|
|-000-0-0-0-0-000-0-0-0-0-000-0-0-000-0-0-0-0-000-0-0-0-0-000-0-0|

gtr.2
|----------------------------------------------------------------|
|----------------------------------------------------------------|
|----------------------------------------------------------------|
|----------------------------------------------------------------|
|----------------------------------------------------------------|
|---------------------------------000-0-0-0-0-000-0-0-0-0-000-0-0|

intro 2
gtr. 1
|-----------------------------------------------|
|-----------------------------------------------|
|-----------------------------------------------|
|-0----------------------0----------------------|
|-0----------------------0----------------------|
|-0----------------------0----------------------|

gtr. 2
|-----------------------------------------------|
|-----------------------------------------------|
|-----------------------------------------------|
|-----------------------------------------------|
|----5-7-----8-10-8-7-3-5---5-7-----8-7--8-7-3-5|
|-0-0-0-0-0-0-0--0-------0-0-0-0-0-0-0--0-------|
[ Tab from: http://www.guitartabs.cc/tabs/a/as_i_lay_dying/confined_tab.html ]
verse 1
both
|-----------------------------------------------|
|-----------------------------------------------|
|-----------------------------------------------|
|-----------------------------------------------|
|----5-7-----8-10-8-7-3-5---5-7-----8-7--8-7-3-5|
|-0-0-0-0-0-0-0--0-------0-0-0-0-0-0-0--0-------|
pm. . . . . . .  .       . . . . . . .  .
then
gtr. 1
|-----------------------------------------------|
|-----------------------------------------------|
|-----------------------------------------------|
|-----------------------------------------------|
|----5-7-----8-10-8-7-3-5---5-7-----8-7--8-7-3-5|but 2nd time theres a|-5*-|
|-0-0-0-0-0-0-0--0-------0-0-0-0-0-0-0--0-------|
pm. . . . . . .  .       . . . . . . .  .
gtr. 2
|-------------------------|
|-------------------------|
|-------------------------|
|-------------------------|
|-------------------------|
|-0-0--0-0-0-0-0--00000000|
pm. .  . . . . .  ........
then

both
|-----------------------------------------------------------|
|-----------------------------------------------------------|
|-----------------------------------------------------------|
|0----------------------------------------------------------|
|0-----------8-7-----------10-8-----------------------------|
|0-0-000-000--0-0-0-000-0-0--0-0-0-000-0-0-8-0-7-0-5-0-7-5-3|
pm . ... ...  . . . ... . .  . . . ... . .   .   .   .

chorus

gtr.1
|-----------------------|
|-----------------------|
|-----------------------|
|-----------------------|
|----5-7-12-10-7h8-10-8-|
|-0-0-0-0--0--0---0--0--|
pm. . . .  .  .   .  .
gtr. 2
|----------------------------------------------------------------|
|----------------------------------------------------------------|
|----------------------------------------------------------------|
|-8-8-8-8-8-8-8-8-5-5-5-5-5-5-5-5-0-0-0-0-0-0-0-0-0-0-0-0-0-0-0-0|
|-8-8-8-8-8-8-8-8-5-5-5-5-5-5-5-5-0-0-0-0-0-0-0-0-0-0-0-0-0-0-0-0|
|-8-8-8-8-8-8-8-8-5-5-5-5-5-5-5-5-0-0-0-0-0-0-0-0-0-0-0-0-0-0-0-0|
pm. . . . . . . . . . . . . . . . . . . . . . . . . . . . . . . .

then

gtr. 1
|-----------------------|
|-----------------------|
|-----------------------|
|-----------------------|
|----5-7-12-10-7h8-10-8-|
|-0-0-0-0--0--0---0--0--|
pm. . . .  .  .   .  .

gtr. 2
|----------------|
|----------------|
|----------------|
|-8------5------0|
|-8-hold-5-hold-0|
|-8------5------0|

both
|-----------------------------------------------|
|-----------------------------------------------|
|-----------------------------------------------|
|-----------------------------------------------|
|----5-7-----8-10-8-7-3-5---5-7-----8-7--8-7-3-5|
|-0-0-0-0-0-0-0--0-------0-0-0-0-0-0-0--0-------|
pm. . . . . . .  .       . . . . . . .  .

play chorus again

outro
both
|-----------------------------------------------------------|
|-----------------------------------------------------------|
|-----------------------------------------------------------|
|0----------------------------------------------------------|
|0-----------8-7-----------10-8-----------------------------|
|0-0-000-000--0-0-0-000-0-0--0-0-0-000-0-0-8-0-7-0-5-0-7-5-3|
pm . ... ...  . . . ... . .  . . . ... . .   .   .   .


any questions just emial me at metalicajason@comcast.net
Comments