As I Lay Dying - 94 Hours Chords & Tabs

 

94 Hours Chords & Tabs

As I Lay Dying Chords & Tabs

Version: 3 Type: Tab 0 ratings
1 star 2 stars 3 stars 4 stars 5 stars
comments

94 Hours Tab

----------------------------------------------
        As I Lay Dying " 94 Hours
----------------------------------------------
Tuning: EADGBe

Solo:
e|-----------------------|
B|-----------------------|
G|-10-8-7-8-7------------|
D|------------10-8-7"----|
A|-----------------------|
E|-----------------------|
[ Tab from: http://www.guitartabs.cc/tabs/a/as_i_lay_dying/94_hours_tab_ver_3.html ]
e|---------------------------------------|
B|---------------------------------------|
G|-10--8-7-8----------------7-8-7--------|
D|------------10-8-7-8-10-8-------10-8---|
A|---------------------------------------|
E|---------------------------------------|
(Repeat Bar Four times)



e|--------------------------|
B|--------------------------|
G|---8-7----10--8-7----10---|
D|--------8----------8------|
A|--------------------------|
E|--------------------------|
(Repeat Bar 2 Times)

e|-----------------------------------|
B|-----------------------------------|
G|--8-7---10-8-7"10-8-7---12-10-8-7--|
D|------8---------------8------------|
A|-----------------------------------|
E|-----------------------------------|
(Repeat Bar 5 Times)
Comments