Artificial Darkness - Bound By Blood Chords & Tabs

 

Bound By Blood Chords & Tabs

Artificial Darkness Chords & Tabs

Version: 1 Type: Tab 0 ratings
1 star 2 stars 3 stars 4 stars 5 stars
comments

Bound By Blood Tab

   
Tablature for Artificial Darkness's Bound By Blood






#----------------------------------PLEASE NOTE---------------------------------#
#This file is the author's own work and represents their interpretation of the #
#song. You may only use this file for private study, scholarship, or research. #
#------------------------------------------------------------------------------#

BOUND BY BLOODAs recorded by Artificial DarknessTranscribed by AndyWords by Andy
Music by Dan, Andy, KumarArranged by Dan, AndyGtr I (D G C F A D) - 'Dan Distortion'
Gtr II (D G C F A D) - 'Webbo Distortion'
Gtr III (D G C F A D) - 'Webbo Lead'

   Intro
    Fast Rock Q=155
    Gtr I
      PM|   PM|   PM    PM|   PM|   PM    PM|   PM|   PM    PM|   PM|
    E E E E E E E E   E E E E E E E E   E E E E E E E E   E E E E E E E E
||------------------|-----------------|-----------------|-------------------||
||o-----------------|-----------------|-----------------|------------------o||
||------------------|-----------------|-----------------|-------------------||
||--5-----5-----5---|-4-----4-----4---|-2-----2-----2---|-2-----2-----2-----||
||o-7-7-7-7-7-7-7-7-|-5-5-5-5-5-5-5-5-|-3-3-3-3-3-3-3-3-|-2-2-2-2-2-2-2-2--o||
||------------------|-----------------|-----------------|-------------------||


    Gtr I
      PM|   PM|   PM    PM|   PM|   PM    PM|   PM|   PM    PM|   PM|
    E E E E E E E E   E E E E E E E E   E E E E E E E E   E E E E E E E E
||------------------|-----------------|-----------------|-------------------||
||o-----------------|-----------------|-----------------|------------------o||
||------------------|-----------------|-----------------|-------------------||
||--5-----5-----5---|-4-----4-----4---|-2-----2-----2---|-2-----2-----2-----||
||o-7-7-7-7-7-7-7-7-|-5-5-5-5-5-5-5-5-|-3-3-3-3-3-3-3-3-|-2-2-2-2-2-2-2-2--o||
||------------------|-----------------|-----------------|-------------------||
|
|   Gtr II
|   ~~~~~~~~~~~~~~~~~~~~~~~~~~~~~~~~~~~~~~~~~~~~~~~~~~~~~~~~
|   W                 W                 W                 W
||------------------|-----------------|-----------------|-------------------||
||o-----------------|-----------------|-----------------|------------------o||
||------------------|-----------------|-----------------|-------------------||
||--2---------------|-4---------------|-5---------------|-7-----------------||
||o-----------------|-----------------|-----------------|------------------o||
||------------------|-----------------|-----------------|-------------------||


    Gtrs I, II
      PM|   PM|   PM    PM|   PM|   PM    PM|   PM|   PM    PM|   PM|
    E E E E E E E E   E E E E E E E E   E E E E E E E E   E E E E E E E E
||------------------|-----------------|-----------------|-------------------||
||o-----------------|-----------------|-----------------|------------------o||
||------------------|-----------------|-----------------|-------------------||
||--5-----5-----5---|-4-----4-----4---|-2-----2-----2---|-2-----2-----2-----||
||o-7-7-7-7-7-7-7-7-|-5-5-5-5-5-5-5-5-|-3-3-3-3-3-3-3-3-|-2-2-2-2-2-2-2-2--o||
||------------------|-----------------|-----------------|-------------------||


   Verse
    Gtr I
      PM|   PM|   PM    PM|   PM|   PM    PM|   PM|   PM    PM|   PM|
    E E E E E E E E   E E E E E E E E   E E E E E E E E   E E E E E E E E   4x
||------------------|-----------------|-----------------|-------------------||
||o-----------------|-----------------|-----------------|------------------o||
||------------------|-----------------|-----------------|-------------------||
||--2-----2-----2---|-2-----2-----2---|-2-----2-----2---|-2-----2-----2-----||
||o-2-----2-----2---|-2-----2-----2---|-2-----2-----2---|-2-----2-----2-2--o||
||----0-0---0-0---0-|---0-0---0-0---0-|---0-0---0-0---0-|---0-0---0-0-------||
|
|   Gtr II
|     PM|   PM|   PM    PM|   PM|   PM    PM|   PM|   PM    PM|   PM|
|   E E E E E E E E   E E E E E E E E   E E E E E E E E   E E E E E E E E   4x
||------------------|-----------------|-----------------|-------------------||
||o-----------------|-----------------|-----------------|------------------o||
||------------------|-----------------|-----------------|-------------------||
||--5-----5-----5---|-4-----4-----4---|-2-----2-----2---|-2-----2-----2-----||
||o-7-7-7-7-7-7-7-7-|-5-5-5-5-5-5-5-5-|-3-3-3-3-3-3-3-3-|-2-2-2-2-2-2-2-2--o||
||------------------|-----------------|-----------------|-------------------||


   Pre-Chorus
    Gtrs I, II
      PM|   PM|   PM    PM|   PM|   PM
    E E E E E E E E   E E E E E E E E
||------------------|-----------------|
||o-----------------|-----------------|
||------------------|-----------------|
||--5-----5-----5---|-7-----7-----7---|
||o-7-7-7-7-7-7-7-7-|-9-9-9-9-9-9-9-9-|
||------------------|-----------------|


      PM|      PM|      PM    PM|   PM|
   E  E  E  E  E  E  E  E   E E E E E E E E
|-------------------------|-------------------||
|-------------------------|------------------o||
|-------------------------|-------------------||
|--9--------9--------9----|-7-----7-----7-----||
|-10-10-10-10-10-10-10-10-|-9-9-9-9-9-9-9-9--o||
|-------------------------|-------------------||


   Chorus
    Gtr I
    Q  E Q  E E E   Q  E Q  E E E   Q  E Q  E E E   Q  E Q  E E E   4x
||----------------|---------------|---------------|-----------------||
||o---------------|---------------|---------------|----------------o||
||--9--9-9--9-9-9-|-7--7-7--7-7-7-|-5--5-5--5-5-5-|-4--4-4--4-4-4---||
||--9--9-9--9-9-9-|-7--7-7--7-7-7-|-5--5-5--5-5-5-|-4--4-4--4-4-4---||
||o-7--7-7--7-7-7-|-5--5-5--5-5-5-|-3--3-3--3-3-3-|-2--2-2--2-2-2--o||
||----------------|---------------|---------------|-----------------||
|
|   Gtr II
|   ~~~~~~~~~~~~~~~~~~~~~~~~~~~~~~~~~~~~~~~~~~~~~~~~~~
|   W               W               W               W               4x
||----------------|---------------|---------------|-----------------||
||o---------------|---------------|---------------|----------------o||
||----------------|---------------|---------------|-----------------||
||--5-------------|-4-------------|-2-------------|-2---------------||
||o---------------|---------------|---------------|----------------o||
||----------------|---------------|---------------|-----------------||


    Gtrs I, II
      PM|   PM|   PM    PM|   PM|   PM    PM|   PM|   PM    PM|   PM|
    E E E E E E E E   E E E E E E E E   E E E E E E E E   E E E E E E E E
||------------------|-----------------|-----------------|-------------------||
||o-----------------|-----------------|-----------------|------------------o||
||------------------|-----------------|-----------------|-------------------||
||--5-----5-----5---|-4-----4-----4---|-2-----2-----2---|-2-----2-----2-----||
||o-7-7-7-7-7-7-7-7-|-5-5-5-5-5-5-5-5-|-3-3-3-3-3-3-3-3-|-2-2-2-2-2-2-2-2--o||
||------------------|-----------------|-----------------|-------------------||


   Verse
    Gtr I
      PM|   PM|   PM    PM|   PM|   PM    PM|   PM|   PM    PM|   PM|
    E E E E E E E E   E E E E E E E E   E E E E E E E E   E E E E E E E E   4x
||------------------|-----------------|-----------------|-------------------||
||o-----------------|-----------------|-----------------|------------------o||
||------------------|-----------------|-----------------|-------------------||
||--2-----2-----2---|-2-----2-----2---|-2-----2-----2---|-2-----2-----2-----||
||o-2-----2-----2---|-2-----2-----2---|-2-----2-----2---|-2-----2-----2-2--o||
||----0-0---0-0---0-|---0-0---0-0---0-|---0-0---0-0---0-|---0-0---0-0-------||
|
|   Gtr II
|     PM|   PM|   PM    PM|   PM|   PM    PM|   PM|   PM    PM|   PM|
|   E E E E E E E E   E E E E E E E E   E E E E E E E E   E E E E E E E E   4x
||------------------|-----------------|-----------------|-------------------||
||o-----------------|-----------------|-----------------|------------------o||
||------------------|-----------------|-----------------|-------------------||
||--5-----5-----5---|-4-----4-----4---|-2-----2-----2---|-2-----2-----2-----||
||o-7-7-7-7-7-7-7-7-|-5-5-5-5-5-5-5-5-|-3-3-3-3-3-3-3-3-|-2-2-2-2-2-2-2-2--o||
||------------------|-----------------|-----------------|-------------------||


   Pre-Chorus
    Gtrs I, II
      PM|   PM|   PM    PM|   PM|   PM
    E E E E E E E E   E E E E E E E E
||------------------|-----------------|
||o-----------------|-----------------|
||------------------|-----------------|
||--5-----5-----5---|-7-----7-----7---|
||o-7-7-7-7-7-7-7-7-|-9-9-9-9-9-9-9-9-|
||------------------|-----------------|


      PM|      PM|      PM    PM|   PM|
   E  E  E  E  E  E  E  E   E E E E E E E E
|-------------------------|-------------------||
|-------------------------|------------------o||
|-------------------------|-------------------||
|--9--------9--------9----|-7-----7-----7-----||
|-10-10-10-10-10-10-10-10-|-9-9-9-9-9-9-9-9--o||
|-------------------------|-------------------||


   Chorus
    Gtr I
    Q  E Q  E E E   Q  E Q  E E E   Q  E Q  E E E   Q  E Q  E E E   4x
||----------------|---------------|---------------|-----------------||
||o---------------|---------------|---------------|----------------o||
||--9--9-9--9-9-9-|-7--7-7--7-7-7-|-5--5-5--5-5-5-|-4--4-4--4-4-4---||
||--9--9-9--9-9-9-|-7--7-7--7-7-7-|-5--5-5--5-5-5-|-4--4-4--4-4-4---||
||o-7--7-7--7-7-7-|-5--5-5--5-5-5-|-3--3-3--3-3-3-|-2--2-2--2-2-2--o||
||----------------|---------------|---------------|-----------------||
|
|   Gtr II
|   ~~~~~~~~~~~~~~~~~~~~~~~~~~~~~~~~~~~~~~~~~~~~~~~~~~
|   W               W               W               W               4x
||----------------|---------------|---------------|-----------------||
||o---------------|---------------|---------------|----------------o||
||----------------|---------------|---------------|-----------------||
||--5-------------|-4-------------|-2-------------|-2---------------||
||o---------------|---------------|---------------|----------------o||
||----------------|---------------|---------------|-----------------||


 Guitar Solo
  Gtr I
        PM|            PM---|                 PM          PM--------|           PM--------|          PM  PM|         PM----|             PM             PM----|              PM----|
   E    E  E      E    E     E      E         E     E     E         E     E     E         E     E    E E E E       E E     E        E    E        E     E     E      E       E     E     E
|-------------------------------------------------------------------------------------------------------------------------------------------------------------------------------------------------|
|-------------------------------------------------------------------------------------------------------------------------------------------------------------------------------------------------|
|-------------------------------------------------------------------------------------------------------------------------------------------------------------------------------------------------|
|--5--------------5-----------------5---------------4---------------------4---------------------4------2-----------2----------------2-------------2------------------2-------------------2--------|
|--7----7--7------7----7-----7------7---------7-----5-----5---------5-----5-----5---------5-----5----5-3-3-3-------3-3-----3--------3----3--------2-----2-----2------2-------2-----2-----2--------|
|-------------------------------------------------------------------------------------------------------------------------------------------------------------------------------------------------|
|
| Gtr III
|                                                                                                  ~~
|  Q       S.  S.    S.   S. S.  S.    T.  S.    S.    S.    S.  S.    S.    S.    S.  S.    S.    H          Q         S.    S.  S    S.   S.  E    S.    S.     S.    S. S.   S.    S.    S.
|-------------------14h==15p14--------14--15----17----15----14--------14----15----14--------------------------------------------------------------------------------------------------------------|
|-15b17r======15----------------15------------------------------15--------------------15----14----12-------------------------------------------------------------------14h15p==14----------14-----|
|---------16-------------------------------------------------------------------------------------------------14b16r==============12h==14p==12-------12----14----/16------------------16-----------|
|----------------------------------------------------------------------------------------------------------------------12----14----------------14-------------------------------------------------|
|-------------------------------------------------------------------------------------------------------------------------------------------------------------------------------------------------|
|-------------------------------------------------------------------------------------------------------------------------------------------------------------------------------------------------|


  Gtr I
         PM---|             PM---|   PM        PM|   PM---|            PM          PM---|            PM---|            PM          PM---|            PM---|
   E     E    E      E      E    E E E E       E E E E     E     E     E     E     E     E     E     E     E     E     E     E     E     E     E     E     E     E
|------------------------------------------------------------------------------------------------------------------------------------------------------------------------|
|------------------------------------------------------------------------------------------------------------------------------------------------------------------------|
|------------------------------------------------------------------------------------------------------------------------------------------------------------------------|
|--5-----------------5-------------5---4-----------4-------------4-----------2-----------------2-----------------2-----------2-----------------2-----------------2-------|
|--7-----7----7------7------7----7-7-7-5-------5-5-5-5-----5-----5-----5-----3-----3-----3-----3-----3-----3-----3-----3-----2-----2-----2-----2-----2-----2-----2-------|
|------------------------------------------------------------------------------------------------------------------------------------------------------------------------|
|
|                              ~~
|  S.  S.   S.   S.  S.  S.    H          H             S  S  S  S  S  S  S  S  S  S  S  S  S  S  S  S  S  S  S  S  S  S  S  S  S  S  S  S  S  S  S  S  S  S  S  S  S
|-----14h==15p==14-----------------------15b17r========12-15-15p12-15p12-------------------------------------------------------------------------------------------------|
|-15----------------15--14----12-----------------------------------------15p12-15p12-------------------------------------------------------------------------------------|
|------------------------------------------------------------------------------------14p12-14p12----------------------------------------12-14p12----12-14p12-------------|
|------------------------------------------------------------------------------------------------14p12-14p12----12-14p12----12-14p12-------------14----------14-14-14----|
|------------------------------------------------------------------------------------------------------------14----------14----------14----------------------------------|
|------------------------------------------------------------------------------------------------------------------------------------------------------------------------|


  Gtr I
         PM---|            PM---|            PM          PM---|            PM---|            PM          PM---|            PM---|            PM          PM---|            PM---|
   E     E     E     E     E     E     E     E     E     E     E     E     E     E     E     E     E     E     E     E     E     E     E     E     E     E     E     E     E     E     E
|----------------------------------------------------------------------------------------------------------------------------------------------------------------------------------------------|
|----------------------------------------------------------------------------------------------------------------------------------------------------------------------------------------------|
|----------------------------------------------------------------------------------------------------------------------------------------------------------------------------------------------|
|--5-----------------5-----------------5-----------4-----------------4-----------------4-----------2-----------------2-----------------2-----------2-----------------2-----------------2-------|
|--7-----7-----7-----7-----7-----7-----7-----7-----5-----5-----5-----5-----5-----5-----5-----5-----3-----3-----3-----3-----3-----3-----3-----3-----2-----2-----2-----2-----2-----2-----2-------|
|----------------------------------------------------------------------------------------------------------------------------------------------------------------------------------------------|
|
|  S  S  S  S  S  S  S  S  S  S  S  S  S  S  S  S  S  S  S  S  S  S  S  S  S  S  S  S  S  S  S  S  S  S  S  S  S  S  S  S  S  S  S  S  S  S  S  S  S  S  S  S  S  S  S  S  S  S  S  S  S  S
|-------------------------------------15p12-15p12----------------------------------------------------------------------------------------------------------------------------12-15p12----------|
|-12-15p12----12-15p12----12-15p12----------------15p12-15p12----------------------------------------------------------------------------------------12-15p12----12-15p12-------------15-15----|
|----------14----------14----------14-------------------------14p12-14p12----------------------------------------------------12-14p12----12-14p12-------------14----------14-------------------|
|-------------------------------------------------------------------------14p12-14p12----12-14p12----12-14p12----12-14p12-------------14----------14-------------------------------------------|
|-------------------------------------------------------------------------------------14----------14----------14----------14-------------------------------------------------------------------|
|----------------------------------------------------------------------------------------------------------------------------------------------------------------------------------------------|


         PM---|            PM---|            PM          PM---|            PM---|            PM          PM---|            PM---|            PM          PM---|            PM---|
   E     E     E     E     E     E     E     E     E     E     E     E     E     E     E     E     E     E     E     E     E     E     E     E     E     E     E     E     E     E     E
|------------------------------------------------------------------------------------------------------------------------------------------------------------------------------------------------------|
|------------------------------------------------------------------------------------------------------------------------------------------------------------------------------------------------------|
|------------------------------------------------------------------------------------------------------------------------------------------------------------------------------------------------------|
|--5-----------------5-----------------5-----------4-----------------4-----------------4-----------2-----------------2-----------------2-----------2-----------------2-----------------2---------------|
|--7-----7-----7-----7-----7-----7-----7-----7-----5-----5-----5-----5-----5-----5-----5-----5-----3-----3-----3-----3-----3-----3-----3-----3-----2-----2-----2-----2-----2-----2-----2---------------|
|------------------------------------------------------------------------------------------------------------------------------------------------------------------------------------------------------|
|
|  S  S  S  S  S  S  S  S  S  S  S  S  S  S  S  S  S  S  S  S  S  S  S  S  S  S  S  S  S  S  S  S  S  S  S  S  S  S  S  S  S  S  S  S  S  S  S  S  S  S  S  S  S  S  S  S  S  S  S  S  S  S     E
|-12-15p12----12-15p12----12-15p12----12-15p12----12-15p12----12-15p12----12-15p12----12-15p12----12-15p12----12-15p12----12-15p12----12-15p12----12-15p12----12-15p12----12-15p12----12-15b17-15b17---|
|----------15----------15----------15----------15----------15----------15----------15----------15----------15----------15----------15----------15----------15----------15----------15------------------|
|------------------------------------------------------------------------------------------------------------------------------------------------------------------------------------------------------|
|------------------------------------------------------------------------------------------------------------------------------------------------------------------------------------------------------|
|------------------------------------------------------------------------------------------------------------------------------------------------------------------------------------------------------|
|------------------------------------------------------------------------------------------------------------------------------------------------------------------------------------------------------|

[ Tab from: http://www.guitartabs.cc/tabs/a/artificial_darkness/bound_by_blood_tab.html ]
  Gtr I
      PM|     PM      PM--|       PM--|       PM      PM---|        PM--|         PM          PM---|          PM--|          PM      PM--|        PM---|
  E   E E   E E   E   E   E   E   E   E   E   E   E   E    E   E    E   E    E    E     E     E     E    E    E    E    E    E   E   E   E   E    E    E    E    E
|------------------------------------------------------------------------------------------------------------------------------------------------------------------------|
|------------------------------------------------------------------------------------------------------------------------------------------------------------------------|
|------------------------------------------------------------------------------------------------------------------------------------------------------------------------|
|-5---------5-----5-----------5-----------5-------7------------7-------------7----------9----------------9--------------9--------7-----------7--------------7------------|
|-7---7-7---7-7---7---7---7---7---7---7---7---7---9---9----9---9----9---9----9----9----10----10----10---10---10---10---10---10---9---9---9---9----9----9----9----9-------|
|------------------------------------------------------------------------------------------------------------------------------------------------------------------------|
|
| S S E S S E S S S S S S S S S S S S S S S S S S S S S  S S S S  S S S S  S S  S S  S  S  S  S  S  S S  S S  S S  S S  S S  S S S S S S S S S  S S  S S  S S  S S  S
|-----------------------------------------------------------------------7h10p7-10p7-10p=7--------------------------------------------------------------7h10-7h10-7h10----|
|-----------------------------------------------------7h10p7---7h10p7---------------------10p=7-10p=7----------------------------------------7h10p7-10-------------------|
|-------------------------------------7h9p7---7h9p7----------9--------9-------------------------------9p=7h9--7----------------------7h9p7-9-----------------------------|
|-------------7-9-7---7h9p7---7h9p7-9-------9-------9-----------------------------------------------------------9p=7h9--7----7h9p7-9-------------------------------------|
|-5S7h9-5S7h9-------9-------9---------------------------------------------------------------------------------------------9----------------------------------------------|
|------------------------------------------------------------------------------------------------------------------------------------------------------------------------|


  Gtr I
       PM---|         PM         PM--|       PM--|       PM      PM--|         PM---|         PM          PM---|            PM---|            PM        PM---|         PM---|
  E    E    E    E    E     E    E   E   E   E   E   E   E   E   E   E    E    E    E    E    E     E     E     E     E     E     E     E     E    E    E    E    E    E    E    E E
|---------------------------------------------------------------------------------------------------------------------------------------------------------------------------------------|
|---------------------------------------------------------------------------------------------------------------------------------------------------------------------------------------|
|---------------------------------------------------------------------------------------------------------------------------------------------------------------------------------------|
|-5--------------5----------5------------5-----------5-------7------------7--------------7----------9-----------------9-----------------9----------7--------------7--------------7------|
|-7----7----7----7----7-----7----7---7---7---7---7---7---7---9---9---9----9----9----9----9----9----10----10----10----10----10----10----10----10----9----9----9----9----9----9----9-9----|
|---------------------------------------------------------------------------------------------------------------------------------------------------------------------------------------|
|
| S  S S  S S  S S  S S  S  S S  S S S S S S S S S S S S S S S S S S S S  S S  S  S S  S S  S S  S  S  S  S  S  S  S  S  S  S  S  S  S  S  S  S  S S  S S  S S  S S  S S  S S  S S
|-7h10-7h10-7h10-7h10-7h10-------------------------------------------------------10p7-10p7-10p7-10p=7-10p=7-10p=7-10p=7-10p=7-10p=7-10p=7-10p=7-10p7-10p7-10p7-10p7-10p7-10p7-10p7------|
|--------------------------10p7-10p7-----------------------------------7h10p7-10--------------------------------------------------------------------------------------------------------|
|------------------------------------9p7-9p7-------------------7h9p7-9------------------------------------------------------------------------------------------------------------------|
|--------------------------------------------9p7-9p7---7h9p7-9--------------------------------------------------------------------------------------------------------------------------|
|----------------------------------------------------9----------------------------------------------------------------------------------------------------------------------------------|
|---------------------------------------------------------------------------------------------------------------------------------------------------------------------------------------|


   Q      E  Q      E  E  E  Q   E  Q   E  E  E  Q   E  Q   E  E  E  Q   E  Q   E  E  E
|---------------------------------------------------------------------------------------|
|---------------------------------------------------------------------------------------|
|--9------9--9------9--9--9--7---7--7---7--7--7--5---5--5---5--5--5--4---4--4---4--4--4-|
|--9------9--9------9--9--9--7---7--7---7--7--7--5---5--5---5--5--5--4---4--4---4--4--4-|
|--7------7--7------7--7--7--5---5--5---5--5--5--3---3--3---3--3--3--2---2--2---2--2--2-|
|---------------------------------------------------------------------------------------|
|
|  ~~~~~~~~~~~~~~~~~~~~~~~~~~~~~~~~~~~~~~~~~~~~~~~~~~~~~~~~~~~~~~~~~~~~
|  W                         W                   W                   W
|---------------------------------------------------------------------------------------|
|---------------------------------------------------------------------------------------|
|---------------------------------------------------------------------------------------|
|--5-------------------------4-------------------2-------------------2------------------|
|---------------------------------------------------------------------------------------|
|---------------------------------------------------------------------------------------|
|
| Gtr III
|  Q      E  Q      E  E  E  Q   E  Q   E  E  E  Q   E  Q   E  E  E  Q   E  Q   E  E  E
|-------------------------------------------------------------------12--15-12-----12-15-|
|-----------------------------------------------12--15-12-----12-15------------15-------|
|-14b16--14-14b16--14-12----12--14-12-----12-14------------14---------------------------|
|------------------------14------------14-----------------------------------------------|
|---------------------------------------------------------------------------------------|
|---------------------------------------------------------------------------------------|


   Q      E  Q      E  E  E  Q   E  Q   E  E  E  Q   E  Q   E  E  E  Q      E    Q  E E E
|-----------------------------------------------------------------------------------------|
|-----------------------------------------------------------------------------------------|
|--9------9--9------9--9--9--7---7--7---7--7--7--5---5--5---5--5--5--4------4----4--4-4-4-|
|--9------9--9------9--9--9--7---7--7---7--7--7--5---5--5---5--5--5--4------4----4--4-4-4-|
|--7------7--7------7--7--7--5---5--5---5--5--5--3---3--3---3--3--3--2------2----2--2-2-2-|
|-----------------------------------------------------------------------------------------|
|
|  ~~~~~~~~~~~~~~~~~~~~~~~~~~~~~~~~~~~~~~~~~~~~~~~~~~~~~~~~~~~~~~~~~~~~~~~
|  W                         W                   W                   W
|-----------------------------------------------------------------------------------------|
|-----------------------------------------------------------------------------------------|
|-----------------------------------------------------------------------------------------|
|--5-------------------------4-------------------2-------------------2--------------------|
|-----------------------------------------------------------------------------------------|
|-----------------------------------------------------------------------------------------|
|
|  Q      E  Q      E  E  E  Q   E  Q   E  E  E  Q   E  Q   E  E  E  Q      H
|-15b17--15-15b17--15-12----12--15-12--15-12----12--15-12--12-14-15-15b17--15b17----------|
|------------------------15------------------15-------------------------------------------|
|-----------------------------------------------------------------------------------------|
|-----------------------------------------------------------------------------------------|
|-----------------------------------------------------------------------------------------|
|-----------------------------------------------------------------------------------------|


   Q          E     Q          E    E    E    Q        E   Q        E    E   E    Q        E   Q        E    E   E    Q         E    Q          E     E    E
|----------------------------------------------------------------------------------------------------------------------------------------------------------------|
|----------------------------------------------------------------------------------------------------------------------------------------------------------------|
|--9----------9-----9----------9----9----9----7--------7---7--------7----7---7----5--------5---5--------5----5---5----4---------4----4----------4-----4----4-----|
|--9----------9-----9----------9----9----9----7--------7---7--------7----7---7----5--------5---5--------5----5---5----4---------4----4----------4-----4----4-----|
|--7----------7-----7----------7----7----7----5--------5---5--------5----5---5----3--------3---3--------3----3---3----2---------2----2----------2-----2----2-----|
|----------------------------------------------------------------------------------------------------------------------------------------------------------------|
|
|  ~~~~~~~~~~~~~~~~~~~~~~~~~~~~~~~~~~~~~~~~~~~~~~~~~~~~~~~~~~~~~~~~~~~~~~~~~~~~~~~~~~~~~~~~~~~~~~~~~~~~~~~~~~~~~~~~~~~~~~
|  W                                          W                                   W                                   W
|----------------------------------------------------------------------------------------------------------------------------------------------------------------|
|----------------------------------------------------------------------------------------------------------------------------------------------------------------|
|----------------------------------------------------------------------------------------------------------------------------------------------------------------|
|--5------------------------------------------4-----------------------------------2-----------------------------------2------------------------------------------|
|----------------------------------------------------------------------------------------------------------------------------------------------------------------|
|----------------------------------------------------------------------------------------------------------------------------------------------------------------|
|
|  T          T          T          T         T        T        T        T        T        T        T        T        T         T          T          T
|  S  S  S S  S  S  S S  S  S  S S  S  S S S  S S S S  S S S S  S S S S  S S S S  S S S S  S S S S  S S S S  S S S S  S S S  S  S S  S  S  S S  S  S  S S  S  S
|-19p15p14p0h19p14p12p0h19p12p10p0h19p10p9p0h19p9p7p0h19p7p5p0h19p5p3p0h19p3p2p0-19p0h2h3h19p0h3h5h19p0h5h7h19p0h7h9h19p0h9h10h19p0h10h12h19p0h12h14h19p0h14h15--|
|----------------------------------------------------------------------------------------------------------------------------------------------------------------|
|----------------------------------------------------------------------------------------------------------------------------------------------------------------|
|----------------------------------------------------------------------------------------------------------------------------------------------------------------|
|----------------------------------------------------------------------------------------------------------------------------------------------------------------|
|----------------------------------------------------------------------------------------------------------------------------------------------------------------|


   Q        E   Q        E    E   E    Q        E   Q        E    E   E    Q        E   Q        E    E    E Q  E Q  E E E
|-----------------------------------------------------------------------------------------------------------------------------|
|-----------------------------------------------------------------------------------------------------------------------------|
|--9--------9---9--------9----9---9----7--------7---7--------7----7---7----5--------5---5--------5----5----5-4--4-4--4-4-4----|
|--9--------9---9--------9----9---9----7--------7---7--------7----7---7----5--------5---5--------5----5----5-4--4-4--4-4-4----|
|--7--------7---7--------7----7---7----5--------5---5--------5----5---5----3--------3---3--------3----3----3-2--2-2--2-2-2----|
|-----------------------------------------------------------------------------------------------------------------------------|
|
|  ~~~~~~~~~~~~~~~~~~~~~~~~~~~~~~~~~~~~~~~~~~~~~~~~~~~~~~~~~~~~~~~~~~~~~~~~~~~~~~~~~~~~~~~~~~~~~~~~~~~~~~~~~~~~
|  W                                   W                                   W                                 W
|-----------------------------------------------------------------------------------------------------------------------------|
|-----------------------------------------------------------------------------------------------------------------------------|
|-----------------------------------------------------------------------------------------------------------------------------|
|--5-----------------------------------4-----------------------------------2---------------------------------2----------------|
|-----------------------------------------------------------------------------------------------------------------------------|
|-----------------------------------------------------------------------------------------------------------------------------|
|
|                                                                                                          ~~
|  S S S S  S S S S  S S S S  S S S S  S S S S  S S S  S S S S  S S S S  S S S S  S S S S  S S S S  S S S  W
|-12-0-0-0-14-0-0-0-15-0-0-0-14-0-0-0-17-0-0-0-15-0-0-12-0-0-0-14-0-0-0-15-0-0-0-14-0-0-0-17-0-0-0-15-0-0-12------------------|
|-----------------------------------------------------------------------------------------------------------------------------|
|-----------------------------------------------------------------------------------------------------------------------------|
|-----------------------------------------------------------------------------------------------------------------------------|
|-----------------------------------------------------------------------------------------------------------------------------|
|-----------------------------------------------------------------------------------------------------------------------------|


      PM|   PM|   PM    PM|   PM|   PM    PM|   PM|   PM    PM|   PM|
    E E E E E E E E   E E E E E E E E   E E E E E E E E   E E E E E E E E
||------------------|-----------------|-----------------|-----------------||
||o-----------------|-----------------|-----------------|----------------o||
||------------------|-----------------|-----------------|-----------------||
||--5-----5-----5---|-4-----4-----4---|-2-----2-----2---|-2-----2-----2---||
||o-7-7-7-7-7-7-7-7-|-5-5-5-5-5-5-5-5-|-3-3-3-3-3-3-3-3-|-2-2-2-2-2-2-2-2o||
||------------------|-----------------|-----------------|-----------------||


   Verse
    Gtr I
      PM|   PM|   PM    PM|   PM|   PM    PM|   PM|   PM    PM|   PM|
    E E E E E E E E   E E E E E E E E   E E E E E E E E   E E E E E E E E   4x
||------------------|-----------------|-----------------|-------------------||
||o-----------------|-----------------|-----------------|------------------o||
||------------------|-----------------|-----------------|-------------------||
||--2-----2-----2---|-2-----2-----2---|-2-----2-----2---|-2-----2-----2-----||
||o-2-----2-----2---|-2-----2-----2---|-2-----2-----2---|-2-----2-----2-2--o||
||----0-0---0-0---0-|---0-0---0-0---0-|---0-0---0-0---0-|---0-0---0-0-------||
|
|   Gtr II
|     PM|   PM|   PM    PM|   PM|   PM    PM|   PM|   PM    PM|   PM|
|   E E E E E E E E   E E E E E E E E   E E E E E E E E   E E E E E E E E   4x
||------------------|-----------------|-----------------|-------------------||
||o-----------------|-----------------|-----------------|------------------o||
||------------------|-----------------|-----------------|-------------------||
||--5-----5-----5---|-4-----4-----4---|-2-----2-----2---|-2-----2-----2-----||
||o-7-7-7-7-7-7-7-7-|-5-5-5-5-5-5-5-5-|-3-3-3-3-3-3-3-3-|-2-2-2-2-2-2-2-2--o||
||------------------|-----------------|-----------------|-------------------||


      PM|   PM|   PM    PM|   PM|   PM
    E E E E E E E E   E E E E E E E E
||------------------|-----------------|
||o-----------------|-----------------|
||------------------|-----------------|
||--5-----5-----5---|-7-----7-----7---|
||o-7-7-7-7-7-7-7-7-|-9-9-9-9-9-9-9-9-|
||------------------|-----------------|


      PM|      PM|      PM    PM|   PM|
   E  E  E  E  E  E  E  E   E E E E E E E E
|-------------------------|-----------------||
|-------------------------|----------------o||
|-------------------------|-----------------||
|--9--------9--------9----|-7-----7-----7---||
|-10-10-10-10-10-10-10-10-|-9-9-9-9-9-9-9-9o||
|-------------------------|-----------------||


   Chorus
    Q  E Q  E E E   Q  E Q  E E E   Q  E Q  E E E   Q  E Q  E E E   4x
||----------------|---------------|---------------|-----------------||
||o---------------|---------------|---------------|----------------o||
||--9--9-9--9-9-9-|-7--7-7--7-7-7-|-5--5-5--5-5-5-|-4--4-4--4-4-4---||
||--9--9-9--9-9-9-|-7--7-7--7-7-7-|-5--5-5--5-5-5-|-4--4-4--4-4-4---||
||o-7--7-7--7-7-7-|-5--5-5--5-5-5-|-3--3-3--3-3-3-|-2--2-2--2-2-2--o||
||----------------|---------------|---------------|-----------------||
|
|   ~~~~~~~~~~~~~~~~~~~~~~~~~~~~~~~~~~~~~~~~~~~~~~~~~~
|   W               W               W               W               4x
||----------------|---------------|---------------|-----------------||
||o---------------|---------------|---------------|----------------o||
||----------------|---------------|---------------|-----------------||
||--5-------------|-4-------------|-2-------------|-2---------------||
||o---------------|---------------|---------------|----------------o||
||----------------|---------------|---------------|-----------------||


   Outro
    Gtrs I, II
      PM|   PM|   PM    PM|   PM|   PM    PM|   PM|   PM    PM|   PM|
    E E E E E E E E   E E E E E E E E   E E E E E E E E   E E E E E E E E
||------------------|-----------------|-----------------|-----------------||
||o-----------------|-----------------|-----------------|----------------o||
||------------------|-----------------|-----------------|-----------------||
||--5-----5-----5---|-4-----4-----4---|-2-----2-----2---|-2-----2-----2---||
||o-7-7-7-7-7-7-7-7-|-5-5-5-5-5-5-5-5-|-3-3-3-3-3-3-3-3-|-2-2-2-2-2-2-2-2o||
||------------------|-----------------|-----------------|-----------------||


    Gtrs I, II
      PM|   PM|   PM    PM|   PM|   PM
    E E E E E E E E   E E E E E E E E
||------------------|-----------------|
||o-----------------|-----------------|
||------------------|-----------------|
||--5-----5-----5---|-7-----7-----7---|
||o-7-7-7-7-7-7-7-7-|-9-9-9-9-9-9-9-9-|
||------------------|-----------------|


      PM|      PM|      PM    PM|   PM|
   E  E  E  E  E  E  E  E   E E E E E E E
|-------------------------|----------------||
|-------------------------|---------------o||
|-------------------------|----------------||
|--9--------9--------9----|-7-----7-----7--||
|-10-10-10-10-10-10-10-10-|-9-9-9-9-9-9-9-o||
|-------------------------|----------------||


  Gtrs I, II
  >
  W        +W
|-----------------|
|-----------------|
|-----------------|
|-2--------(2)----|
|-2--------(2)----|
|-0--------(0)----|




Duration Legend
---------------
W - whole; H - half; Q - quarter; E - 8th; S - 16th; T - 32nd; X - 64th; a - acciaccatura
+ - note tied to previous; . - note dotted; .. - note double dotted
Uncapitalized letters represent notes that are staccato (1/2 duration)
Irregular groupings are notated above the duration line
Duration letters will always appear directly above the note/fret number it represents the
duration for.  Duration letters with no fret number below them represent rests.  Multi-
bar rests are notated in the form Wxn, where n is the number of bars to rest for.  Low
melody durations appear below the staff

Tablature Legend
----------------
 h   - hammer-on
 p   - pull-off
 b   - bend
 pb  - pre-bend
 r   - bend release (if no number after the r, then release immediately)
 /\  - slide into or out of (from/to "nowhere")
 s   - legato slide
 S   - shift slide
<n> - natural harmonic
[n]  - artificial harmonic
n(n) - tapped harmonic
 ~   - vibrato
 tr  - trill
 T   - tap
 TP  - trem. picking
 PM  - palm muting
\n/  - tremolo bar dip; n = amount to dip
 \n  - tremolo bar down
 n/  - tremolo bar up
/n\  - tremolo bar inverted dip
 =   - hold bend; also acts as connecting device for hammers/pulls
 <> - volume swell (louder/softer)
 x   - on rhythm slash represents muted slash
 o   - on rhythm slash represents single note slash

Misc Legend
-----------
 |  - bar
||  - double bar
||o - repeat start
o|| - repeat end
*|  - double bar (ending)
 :  - bar (freetime)
 $  - Segno
 &  - Coda
Tempo markers - <E/E./Q/Q./H/H.> = BPM(8/16=s8/s16), where s8 = swing 8ths, s16 = swing 16ths

** Generated using Power Tab Editor by Brad Larsen:   The Official Power Tab Web Site


Comments