Arthur Joseph - In The Sun Chords & Tabs

 

In The Sun Chords & Tabs

Arthur Joseph Chords & Tabs

Version: 1 Type: Tab 0 ratings
1 star 2 stars 3 stars 4 stars 5 stars
comments

In The Sun Tab

   
Music X Tabs [http://www.mxtabs.net]
Song name :IN THE SUN
Artist : JOSEPH ARTHUR
Album : COME TO WHERE Iā€™M FROM

Transcribed by Henry Domis
E-mail : Rainiou@aol.com

Capo3
*****


Riff A

   Em7            C              G
-|-------------------------------------------------------|----
-|-----3---3---------------------------------------------|----
-|-------0---0---------0-0-0-0-----------------0---0-----|----
-|-2=----------0--0h2--2-0-2-0------0---0------------0---|----  
-|-2=-------------3------------3--2---2---2--0---0-------|----
-|-0=-----------------------------3---3------2---2-------|----

  Riff  Aā€™
[ Tab from: http://www.guitartabs.cc/tabs/a/arthur_joseph/in_the_sun_tab.html ]
   Em7            C              G
-|--------------------------------------------------------|----
-|-----3---3---------------------------------------3------|----
-|-------0---0---------0-0-0-0-----------------0-----0----|----  
-|-2=----------0--0h2--2-0-2-0------0---0-----------------|----
-|-2=-------------3------------3--2---2---2--0---0--------|----
-|-0=-----------------------------3---3------2---2--------|----

  Riff B

    this shows the strum  
    ____________________
   /                    \
-|-(3)ā€”-(3)-(3)-(3)(3)(3)-|-(3)-|-(3)-|-(3)-|-
-|--3----3---3---3--3--3--|--3--|--3--|-(3)-|-
-|--0----0---0---0--0--0--|--0--|--0--|--2--|-
-|--2----2---2---2--2--2--|--2--|--0--|--0--|-
-|--2----2---2---2--2--2--|--3--|--2--|--0--|-
-|------------------------|-----|--3--|--2--|-


 **outro is done with riff A**

Comments