Artcell - Onnoshomoy Chords & Tabs

 

Onnoshomoy Chords & Tabs

Artcell Chords & Tabs

Version: 1 Type: Bass Tab 0 ratings
1 star 2 stars 3 stars 4 stars 5 stars
comments

Onnoshomoy Bass Tab

   
Onno Shomoy
Bass TAB
(solo part)

..Bm . . . . . . . .Bm . . . . . . . . F#m . . . . . . . G . . . .A. . . .
G|--------|4-------|--------|4-------||--------|4-------|------7-|------9-|
D|------0-|--0---0-|------0-|--0---0-||--------|--0---0-|----5---|----5---|
A|--2-----|----2---|2-------|----2---||--2---2-|----2---|--5-----|--7-----|
E|7---7---|--------|--------|--------||2---2---|--------|3-------|5-------|
..T i T I .M I t I .T . . I .M I t I . T I T I .M I t I .t i m r .t i m r
[ Tab from: http://www.guitartabs.cc/tabs/a/artcell/onnoshomoy_btab.html ]
..Bm . . . . . . . .Bm . . . . . . . . F#m . . . . . . . G . . . .A. . . .
G|--------|4-------|--------|4-------||--------|4-------|------7-|------9-|
D|------0-|--0---0-|------0-|--0---0-||--------|--0---0-|----5---|----5---|
A|--2-----|----2---|--2-----|----2---||--2---2-|----2---|--5-----|--7-----|
E|7---7---|--------|7---7---|--------||2---2---|--------|3-------|5-------|
..T i T I .M I t I .T i T I .M I t I . T I T I .M I t I .t i m r .t i m r

Repeat the whole thing once.

Legends...

T Slap down with thumb
I Pop with index finger
M Pop with middle finger

t pluck with thumb
i pluck with index finger
m pluck with middle finger
r pluck with ring finger
Comments