Art Of Noise - Peter Gunn Chords & Tabs

 

Peter Gunn Chords & Tabs

Art Of Noise Chords & Tabs

Version: 2 Type: Bass Tab 0 ratings
1 star 2 stars 3 stars 4 stars 5 stars
comments

Peter Gunn Bass Tab

   
You have a simple btab for this under "miscellaneous/peter_gunn_theme.btab";
you might want to leave that one alone and put this under
"art_of_noise/peter_gunn.btab".  This one is more correct (and much more
complex), IF you overlook the fact that actually a fair amount of the tab
below really belongs to the guitar, not the bass.  Personally, I think it
rocks on bass.  Also, the fade (last four measures) doesn't really repeat;
throw in some improv there and in the second bridge (22 bars after that
funky 3/4 time rest).

This is actually a fairly straightforward tab for such a cool song, and it
can really show off your instrument.  The only advice I'd give newer players
is to bend that Eb WAY UP.

Eric
[ Tab from: http://www.guitartabs.cc/tabs/a/art_of_noise/peter_gunn_btab_ver_2.html ]
>                       Peter Gunn (Art of Noise)
> 
>         q   e  e  q   e  e            e  e  e   e  e   e  e  e        
> G----------------------------||--||-----------------------------------
> D---4:----------------------*||--||*----------------------8-----------
> A---4:--6^--8--8--6^--8--8--*||--||*--8--8--10--8--11--8-----11-------
> E----------------------------||--||-----------------------------------
>                                                                       
>      20x e  e  h  e  e     h  e  e     w     q   e  e  q   e  e       
> G----||-----r--r--------|--r--------|--r--|---------------------------
> D---*||-----e--e--------|--e--------|--e--|---------------------------
> A---*||--8--s--s--8--8--|--s--8--8--|--s--|--6^--8--8--6^--8--8-------
> E----||-----t--t--------|--t--------|--t--|---------------------------
>                                                                       
>          e  e  e   e  e   e  e  e    8x  e  e  h     h  q     e  e    
> G---||-------------------------------||-----r--r--|--r-----|-----r----
> D---||*----------------------8------*||-----e--e--|--e-----|-----e----
> A---||*--8--8--10--8--11--8-----11--*||--8--s--s--|--s-----|--8--s----
> E---||-------------------------------||-----t--t--|--t--8--|-----t----
>                                                                       
>     h     h  e  e  e  e     e  e  h     h  e  e     e  e  h           
> G---r--|--r--r-----------|-----r--r--|--r--------|-----r--r--||-------
> D---e--|--e--e-----------|-----e--e--|--e--------|-----e--e--||*------
> A---s--|--s--s--8--0-----|--8--s--s--|--s--0--0--|--8--s--s--||*------
> E---t--|--t--t--------8--|-----t--t--|--t--------|-----t--t--||-------
>                                                                       
>     e  e  e  e  q  q   8x  solo!    e  e  q   e  e   4x       e  e    
> G---------r--------r---||--||------------------------||--||-----------
> D---------e--------e--*||--||*----------------------*||--||*----------
> A---8--8--s--8--8--s--*||--||*--6^--8--8--6^--8--8--*||--||*--8--8----
> E---------t--------t---||--||------------------------||--||-----------
>                                                                       
>     e   e  e   e  e  e    11x         h               e  e  e   e     
> G-------------------------||--||------r--||------||-------------------
> D-----------------8------*||--||--3:--e--||--4:--||*------------------
> A---10--8--11--8-----11--*||--||--4:--s--||--4:--||*--8--8--10--8-----
> E-------------------------||--||------t--||------||-------------------
>                                                                       
>     e   e  e  e    16x e  h  e  e     h  e  e     w     q   e  e      
> G------------------||-----r--------|--r--------|--r--|----------------
> D----------8------*||-----e--------|--e--------|--e--|----------------
> A---11--8-----11--*||--8--s--8--8--|--s--------|--s--|--6^--8--8------
> E------------------||-----t--------|--t--8--8--|--t--|----------------
>                                                                       
>     q   e  e     e  e  e  e  q  e  e     e  e  e  e  e  q     e  e    
> G-------------|-----------------r-----|-----------------r--|----------
> D-------------|-----------------e-----|-----------------e--|----------
> A---6^--8--8--|-----------------s-----|--1-----2-----3--s--|----------
> E-------------|--1--1--3--1--1--t--1--|-----1-----1-----t--|--1--1----
>                                                                       
>     e  e  q  q     q  q  q  q     e  e  e  e  q  q     e  e  e  e     
> G------------r--|--------------|-----------------r--|-----------------
> D------------e--|--------------|-----------------e--|-----------------
> A------------s--|--3--5--6--7--|-----------------s--|--------1--------
> E---3--1--1--t--|--------------|--1--1--3--1--1--t--|--1--1-----1-----
>                                                                       
>     e  Q     e  e  e  e  q  q     q  q  q  q       q   e  e  q   e    
> G------r--|-----------------r--|--------------||----------------------
> D------e--|-----------------e--|--------------||*---------------------
> A---3--s--|-----------------s--|--3--5--6--7--||*--6^--8--8--6^--8----
> E------t--|--1--1--3--1--1--t--|--------------||----------------------
>                                                                       
>     e     q   e  e  q   e  e     h  h      w  fade                    
> G------|----------------------|--8--10--|--5---||---------------------
> D------|----------------------|---------|-----*||---------------------
> A---8--|--6^--8--8--6^--8--8--|---------|-----*||---------------------
> E------|----------------------|---------|------||---------------------
>                                                                       
> 
> ======================================================================
> ==                      TABLATURE EXPLANATION                       ==
> ======================================================================
> ----------                ----------                ----t---
> ----5h8--- Hammeron       ----(8)--- Ghost          ----6--- Tap
> ----------                ---------- Note           --------
> ----5p8--- Pulloff        ----------                --------
> ----------                ----------                -----p--
> ----5/8--- Slide Up       -----x---- Dead           -----7-- Pop
> ----------                ---------- Note           --s-----
> ----5\8--- Slide Down     ----------                --5----- Slap 
> ----------                ||------|| Repeat         --------
> ----5~~~-- Vibrato        ||*----*||                ---5^--- Bend
> ----------                ||*----*||                --------
> ----------                ||------||                --------
> ----------                ----------                --------
> -4:------- Time           ----------                --------
> -4:------- Signature      ----------                --------
> ----------                ----------                --------
> Rhythm:
>   w = whole note            W = dotted whole
>   h = half note             H = dotted half
>   q = quarter note          Q = dotted quarter
>   e = eighth note           E = dotted eighth
>   s = sixteenth note        S = dotted sixteenth
>   t = 32nd note             T = dotted 32nd
>   x = 64th note             X = dotted 64th
>   ^ = triplet
> ======================================================================
> ==           Created with a demo version of BUCKET O' TAB           ==
> ==             tablature creation software for Windows              ==
> ==                 For more info email gse@his.com                  ==
> ======================================================================
> 

Comments