Armor For Sleep - Wanderers Guild Chords & Tabs

 

Wanderers Guild Chords & Tabs

Armor For Sleep Chords & Tabs

Version: 2 Type: Tab

Wanderers Guild Tab

   
standard tuning (you know what that means)
this baby's pretty tough...

Main Riff: Guitar 1 (lead)
e---------------------------------|----------------|
B---------------------------------|----------------|
G---------------------6-----------|-7-9-11-14-11---|
D----11-------11-----4--4-----7---|-x-x-x--x--x----|
A--9---9----9---9---5-------5--5--|-5-7-9--12-9----|
E-7-------10-------3-------3------|----------------|
play this part as necessary. this part is played at the intro and at the verses. 

verse:
Guitar 2: (rhythm)
e--------|
B--------|
G---11---|
D---11---|
A---9----|
E--------|
play this with an upstroke

prechorus: both guitars
   D  E  Bm
e------------|
B------------|
G--7--9--4---|
D--7--9--4---|
A--5--7--2---|
E------------|
[ Tab from: http://www.guitartabs.cc/tabs/a/armor_for_sleep/wanderers_guild_tab_ver_2.html ]
Chorus: both
  Bm  A  G     then Guitar1 does this:
e------------|------------------------|
B------------|------------------------|
G--4---------|-12\11--12\11--14--11---|
D--4--7--5---|--x\x----x\x---x---x----|
A--2--7--5---|-10\9---10\9---12--9----|
E-----5--3---|------------------------|

Bridge: Guitar 1
e-------------------------------------|
B-------------------------------------|
G-------------------------6-----------|
D---11-----11------------4-4----7-----|
A--9--9---9--9----------5---5--5-5----|
E-7----7-7----7--2-2/3-3------3---3---|
repeat as needed

Guitar2:
 Bm  G 
e--------|
B--------|
G-4------|
D-4--5---|
A-2--5---|
E----3---|

Outro: both
  F# F# G 
e-----------|
B-----------|
G-11--------|
D-x--4--5---|
A-9--4--5---|
E----2--3---|
figure out all strumming patterns by yourself...






>>>11rich03<<<
9:49pm, friday, june 2, 2006