Armor For Sleep - Walking At Night Alone Chords & Tabs

 

Walking At Night Alone Chords & Tabs

Armor For Sleep Chords & Tabs

Version: 2 Type: Tab 0 ratings
1 star 2 stars 3 stars 4 stars 5 stars
comments

Walking At Night Alone Tab

   
armor for sleep
walking at night, alone
tabbed by david roden
dropped d

this tab isnt really that difficult. the intro can be a little tricky but it gets easier the more you do it.

intro/verse
----------------------------------------------------------------------------------------------------------------------|
----------------------------------------------------------------------------------------------------------------------|
-----------0------------------------------0------------------------------0---------------------------7----------------| x4
------7---------7-------7-----------7----------7-------7-----------7--------7------7-----7h9-----9--------------------|
---9----9----------9-------------7---------7-------7-----------5--------5------5------------------------7h9---7----5--|
-9-----------------------------7------------------------------5-------------------------------------------------------|


--10----------------7------------7--------------5------------|
-------7-----------------7-----------7-----------------------|    x2
-----------9----------------7------------7-------------------|
-------------------------------------------------------------|
-------------------------------------------------------------|
-------------------------------------------------------------|

chorus(exact timing not shown)
---------------------------------------------------------------|
---------------------------------------------------------------|
---------------------------------------------------------------|   x2
--7---7---9---5---5---7----7--7----5----9----7-----------------|
--7---7---9---5---5---7----7--7----5----9----7-----------------|
--7---7---9---5---5---7----7--7----5----9----7-----------------|

2nd verse end with
--------------------------------------|
--------------------------------------|
---/-12---11----7----9---11-----------|
---/--x-----x-----x-----x----x--------|
---/-10---9-----5-----7----9----------|
--------------------------------------|

chorus(exact timing not shown)
---------------------------------------------------------------|
---------------------------------------------------------------|
---------------------------------------------------------------|    x2
--7---7---9---5---5---7----7--7----5----9----7-----------------|
--7---7---9---5---5---7----7--7----5----9----7-----------------|
--7---7---9---5---5---7----7--7----5----9----7-----------------|

[ Tab from: http://www.guitartabs.cc/tabs/a/armor_for_sleep/walking_at_night_alone_tab_ver_2.html ]
bridge
-----------------------------------------------------------------------------|
-----------------------------------------------------------------------------|
------6---7---9---------7----9--11-------13-----12--11-----------------------|
-5---x----x---x----5----x----x---x---7-----x------x-----x------(x2)----------|
-5---4---5---7----5----5---7---9---7----11---10----9-------------------------|
-5------------------5-------------------7------------------------------------|

----------------------------------------------------------------------------------------------------------------------|
----------------------------------------------------------------------------------------------------------------------|
-----------0------------------------------0------------------------------0---------------------------7----------------| x4
------7---------7-------7-----------7----------7-------7-----------7--------7------7-----7h9-----9--------------------|
---9----9----------9-------------7---------7-------7-----------5--------5------5------------------------7h9---7----5--|
-9-----------------------------7------------------------------5-------------------------------------------------------|

-----------------------------------------------------------------------------------------------------------------------|
-----------------------------------------------------------------------------------------------------------------------|
----------------------0-------------------------------------------0----------------------------------------0-----------| x1
-----------7---------------7-----------7--------------7-------------7-------7------------------7-------------7------7--|
-----9---------9----------------9----------------7---------7------------7----------------5---------5------------5------|
-9--------------------------------------------7---------------------------------------5--------------------------------|

chorus(exact timing not shown)
---------------------------------------------------------------|
---------------------------------------------------------------|
---------------------------------------------------------------|    x2
--7---7---9---5---5---7----7--7----5----9----7-----------------|
--7---7---9---5---5---7----7--7----5----9----7-----------------|
--7---7---9---5---5---7----7--7----5----9----7-----------------|

end with
----------------------------------------------------------------------------|
----------------------------------------------------------------------------|
------6---7---9---------7----9--11-------13-----12--11----------------------|
-5---x----x---x----5----x----x---x---7-----x------x-----x---(x2)------------|
-5---4---5---7----5----5---7---9---7----11---10----9------------------------|
-5------------------5-------------------7-----------------------------------|

enjoy
Comments