Armor For Sleep - Truth About Heaven Chords & Tabs

 

Truth About Heaven Chords & Tabs

Armor For Sleep Chords & Tabs

Version: 2 Type: Tab

Truth About Heaven Tab

                            Armor for Sleep
                         The Truth About Heaven


standard tuning
EADGBe

intro
--------------------------------------------------------------------------|
--------------------------------------------------------------------------|
--77/9-11------66/9-1111--11/1212121212-9/1111/9999999999-9/1111/777777---|
--xx/x--x(x10)-xx/x--x-x---x/-x-x-x-x-x-x/-x-x/xxxxxxxxxx-x/-x-x/xxxxxx---|
--55/7--9------44/7--9-9---9/1010101010-7/-9-9/7777777777-7/-9-9/555555---|
--------------------------------------------------------------------------|

-------------|
-------------|
---777-777---|
---xxx-xxx---|
---555-555---|
-------------|
[ Tab from: http://www.guitartabs.cc/tabs/a/armor_for_sleep/truth_about_heaven_tab_ver_2.html ]
--------------------------------------------------------------------------|
--------------------------------------------------------------------------|
--77/9-11------66/9-1111--11/1212121212-9/1111-9999999999-9/1111/777777---|
--xx/x--x(x10)-xx/x--x-x---x/-x-x-x-x-x-x/-x-x-xxxxxxxxxx-x/-x-x/xxxxxx---|
--55/7--9------44/7--9-9---9/1010101010-7/-9-9-7777777777-7/-9-9/555555---|
--------------------------------------------------------------------------|

-------------|
-------------|
---777-777---|
---xxx-xxx---|
---555-555---|
-------------|

fill
--14-14--------------------------14-14---------------------------|
-----------------------------------------------------------------|
--------12-1414-12-1414-12-14-12-------12-1414-12-1414-12-14-12--|
-----------------------------------------------------------------|
-----------------------------------------------------------------|
-----------------------------------------------------------------|

-------------------------------|
-------------------------------|
-------------------------------|
--2------7---------------------|x2
--2(x12)-7(x8)-5/7-7-7-7/5-----|
--0------5---------------------|
repeat the fill after this

thats pretty much it
my bad if its a little messy
peace