Armor For Sleep - My Town Chords & Tabs

 

My Town Chords & Tabs

Armor For Sleep Chords & Tabs

Version: 1 Type: Tab 0 ratings
1 star 2 stars 3 stars 4 stars 5 stars
comments

My Town Tab

   
----------------------------------------------------------------------------
			     My Town - ARMOR FOR SLEEP
----------------------------------------------------------------------------
Tabbed by: MasterXaero*
Figured out by: "Mark"
Email: MasterXaero8@hotmail.com

Tuning: E ->keep as-> E
        B ->keep as-> B
        G ->keep as-> G
	D ->keep as-> D
	A ->keep as-> A 
	E ->keep as-> E 

| /  slide up
| \  slide down
| h  hammer-on
| p  pull-off
| ~  vibrato
| +  harmonic
| x  Mute note
| r  Rest
| .  Palm Mute

My guitar teacher taught me this and my band covers this song. I thought that I should
send it around because of the absense of Armor for Sleep tabs out there. Guitar 1 is meant
to be the lead guitarist here and Guitar 2 is meantto be the vocals. Thus, the tabs are
laid out so its easier on the singer (you'll see what I mean in the solo part). This is
how our band plays it:

Intro (Guitar 1)
E|-8h10----10-----8h10----10----8h10------|
B|------11----11-------11----11--------11-|
G|----------------------------------------| (x2)
D|----------------------------------------| (Guitar 2 comes in the on 2nd
A|----------------------------------------|  time this is played in the 
D|----------------------------------------|  beginning of the song ONLY)

E|-------------------------------------|
B|-------------------------------------|
G|-3-3-3-3-3-3-3-3-3-3-3-3-3-3-3-3-3-3-|
D|-3-3-3-3-3-3-3-3-3-3-3-3-3-3-3-3-3-3-|
A|-1-1-1-1-1-1-1-1-1-0-0-0-0-0-0-0-0-0-|
D|-------------------------------------|

======================================================

Intro (Guitar 2)
E|----------------------------|
B|----------------------------|
G|----------------------------|
D|-1-------3--------5-------5-|
A|-1-------3--------5-------5-|
D|-1-------3--------5-------5-|

E|-------------------------------------|
B|-------------------------------------|
G|-3-3-3-3-3-3-3-3-3-3-3-3-3-3-3-3-3-3-|
D|-3-3-3-3-3-3-3-3-3-3-3-3-3-3-3-3-3-3-|
A|-1-1-1-1-1-1-1-1-1-0-0-0-0-0-0-0-0-0-|
D|-------------------------------------|

======================================================

Verse (Guitar 1)
E|-10-8-6-5h6p5-5-5h6p5---|
B|----------------------6-|
G|------------------------|
D|------------------------| (Listen to song for timing)
A|------------------------|
D|------------------------|
[ Tab from: http://www.guitartabs.cc/tabs/a/armor_for_sleep/my_town_tab.html ]
E|-------------------------------------|
B|-------------------------------------|
G|-3-3-3-3-3-3-3-3-3-3-3-3-3-3-3-3-3-3-|
D|-3-3-3-3-3-3-3-3-3-3-3-3-3-3-3-3-3-3-|
A|-1-1-1-1-1-1-1-1-1-0-0-0-0-0-0-0-0-0-|
D|-------------------------------------|

======================================================

Verse (Guitar 2)
E|-------------------------------------------------------|
B|-------------------------------------------------------|
G|-------------------------------------------------------|
D|-1-1-1-1-1-1-1-1-3-3-3-3-3-3-3-3-5-5-5-5-5-5-5-5-5-5-5-|
A|-1-1-1-1-1-1-1-1-3-3-3-3-3-3-3-3-5-5-5-5-5-5-5-5-5-5-5-|
D|-1-1-1-1-1-1-1-1-3-3-3-3-3-3-3-3-5-5-5-5-5-5-5-5-5-5-5-|
   . . . . . . . . . . . . . . . . . .   .   . . .   . 

E|-------------------------------------|
B|-------------------------------------|
G|-3-3-3-3-3-3-3-3-3-3-3-3-3-3-3-3-3-3-|
D|-3-3-3-3-3-3-3-3-3-3-3-3-3-3-3-3-3-3-|
A|-1-1-1-1-1-1-1-1-1-0-0-0-0-0-0-0-0-0-|
D|-------------------------------------|

======================================================

Chorus (Guitar 1 and 2 at the same time)
E|-----------------------------|
B|-----------------------------|
G|-4-4-4-3-3-3-3-3-3-3---------|
D|-4-4-4-3-3-3-3-3-3-3-3-3-3-1-| (4x)
A|-6-6-6-1-1-1-1-1-1-1-3-3-3-1-|
D|---------------------3-3-3-1-|

======================================================

Solo (Guitar 1)
E|--------------------------------------------------------------------|
B|--------------------------------------------------------------------|
G|-3-3-3/5/7-7-7-7--5-5-5/7/8-8-8-8--------10-------10-------10/12\10-|
D|-x-x-x/x/x-x-x-x--x-x-x/x/x-x-x-x--88888-x--88888-x--88888-x-/x-\x--|
A|-1-1-1/3/5-5-5-5--3-3-3/5/6-6-6-6--88888-8--88888-8--88888-8-/10\8--|
D|-----------------------------------88888----88888----88888----------|
                                                             ^^^^^^^^
The last time you play the above part don't do this part     ||||||||

======================================================

Solo (Guitar 2)
E|---------------------|
B|---------------------|
G|---------------------|
D|-1-1-1-1-r-3-3-3-3-r-|
A|-1-1-1-1-r-3-3-3-3-r-|
D|-1-1-1-1-r-3-3-3-3-r-|

======================================================

The order the song is played:

Intro  2x
Verse  2x
Chorus 4x
Intro  1x
Verse  2x
Chorus 4x
Solo   3x
Chorus 4x
Chorus 4x (guitar 1 playing the intro twice per chorus)


End on:

E|---|
B|---|
G|---|
D|-1-|
A|-1-|
D|-1-|

============================================================================
Special thanks to my guitar teacher, Mark, for figuring out this song for me.
I wasn't sure about posting his name so I just put his first name.
============================================================================
Comments