Armor For Sleep - Frost And Front Steps Chords & Tabs

 

Frost And Front Steps Chords & Tabs

Armor For Sleep Chords & Tabs

Version: 1 Type: Tab 0 ratings
1 star 2 stars 3 stars 4 stars 5 stars
comments

Frost And Front Steps Tab

   
        -------------------------------------------------------------              
                  Armor For Sleep- Frost And Front Steps
         ----------------------------------------------------------
tabber:roel y.
tuning: drop d ( d a d g b e)
| /  slide up
| \  slide down
| h  hammer-on
| p  pull-off
| .  palm mute
| x  Mute note
| ~  hold note
==============================


intro:guitar 1 and 2
E|----------------------------------------------------------------------------------|
B|----------------------------------------------------------------------------------|
G|-10-10-10-10-1010101010101010--14-14-14-10-10-10-14-14-14-10-10-10-10/12-12-12-|
D|-x-x---x-x---xx-x-x-x-x-x-x---x--x--x--x--x--x--x--x--x--x--x--x--x--x--x--x--|
A|-8-8---8--8---88-8-8-8-8-8-8---12-12-12-8--8--8--12-12-12-8--8--8--8-/10-10-10-|
D|----------------------------------------------------------------------------------|


cont.
E|---------------------------------------------------------------|
B|---------------------------------------------------------------|
G|--10-10--10-10--10--10-10-10/12\10--10-10-10-5-5-5-9-9-9-9-9-9-|(x2)
D|--x--x---x--x---x---x--x--x--x--x---x--x--x--x-x-x-x-x-x-x-x-x-| 
A|--8--8---8--8---8---8--8--8/-10\8---8--8--8--3-3-3-7-7-7-7-7-7-|
D|---------------------------------------------------------------|



verse: guitar 1
E|-----------------------------|
B|-----------------------------|
G|-----------------------------|(x3)
D|----3--2--2------------------|
A|--5--3--1----2h3p2---2h3p2---|
D|-------------------1-------1-|



verse:guitar 2
E|------------------|
B|------------------|
G|------------------|(x12)
D|--5-5-5-5-5-5-5-5-|
A|--5-5-5-5-5-5-5-5-|
D|--5-5-5-5-5-5-5-5-|
    . . . .   . . 


pre chorus:guitar 1 and 2
E|-----------------------------------|
B|-----------------------------------|
G|--10-10-10-5-5-5-9-9-9-9-9-9-9-9-9-|(x2)
D|--x--x--x--x-x-x-x-x-x-x-x-x-x-x-x-|
A|--8--8--8--3-3-3-7-7-7-7-7-7-7-7-7-|
D|-----------------------------------|



chorus:guitar 1
E|-----------8--8------|
B|--6---6---6--6---6---|
G|---9---9--------9--9-|(x8)
D|---------------------|
A|---------------------|
D|---------------------|



chorus:guitar 2 (figure out the strumming)
E|----------------------------------------------|
B|----------------------------------------------|
G|----------------------------------------------|(x4)
D|--8-8-8-8-8-8-8-8-7-7-7-7-7-7-7-7-10-10-10-10-|
A|--8-8-8-8-8-8-8-8-7-7-7-7-7-7-7-7-10-10-10-10-|
D|--8-8-8-8-8-8-8-8-7-7-7-7-7-7-7-7-10-10-10-10-|


[ Tab from: http://www.guitartabs.cc/tabs/a/armor_for_sleep/frost_and_front_steps_tab.html ]
intro:guitar 1 and 2
E|----------------------------------------------------------------------------------|
B|----------------------------------------------------------------------------------|
G|-10-10-10-10-1010101010101010--14-14-14-10-10-10-14-14-14-10-10-10-10/12-12-12-|
D|-x-x---x-x---xx-x-x-x-x-x-x---x--x--x--x--x--x--x--x--x--x--x--x--x--x--x--x--|
A|-8-8---8--8---88-8-8-8-8-8-8---12-12-12-8--8--8--12-12-12-8--8--8--8-/10-10-10-|
D|----------------------------------------------------------------------------------|


cont.
E|---------------------------------------------------------------|
B|---------------------------------------------------------------|
G|--10-10--10-10--10--10-10-10/12\10--10-10-10-5-5-5-9-9-9-9-9-9-|(x1)
D|--x--x---x--x---x---x--x--x--x--x---x--x--x--x-x-x-x-x-x-x-x-x-| 
A|--8--8---8--8---8---8--8--8/-10\8---8--8--8--3-3-3-7-7-7-7-7-7-|
D|---------------------------------------------------------------|



verse: guitar 1
E|-----------------------------|
B|-----------------------------|
G|-----------------------------|(x3)
D|----3--2--2------------------|
A|--5--3--1----2h3p2---2h3p2---|
D|-------------------1-------1-|



verse:guitar 2
E|------------------|
B|------------------|
G|------------------|(x12)
D|--5-5-5-5-5-5-5-5-|
A|--5-5-5-5-5-5-5-5-|
D|--5-5-5-5-5-5-5-5-|
    . . . .   . . 


pre chorus:guitar 1 and 2
E|-----------------------------------|
B|-----------------------------------|
G|--10-10-10-5-5-5-9-9-9-9-9-9-9-9-9-|(x2)
D|--x--x--x--x-x-x-x-x-x-x-x-x-x-x-x-|
A|--8--8--8--3-3-3-7-7-7-7-7-7-7-7-7-|
D|-----------------------------------|



chorus:guitar 1
E|-----------8--8------|
B|--6---6---6--6---6---|
G|---9---9--------9--9-|(x8)
D|---------------------|
A|---------------------|
D|---------------------|



chorus:guitar 2 
E|----------------------------------------------|
B|----------------------------------------------|
G|----------------------------------------------|(x4)
D|--8-8-8-8-8-8-8-8-7-7-7-7-7-7-7-7-10-10-10-10-|
A|--8-8-8-8-8-8-8-8-7-7-7-7-7-7-7-7-10-10-10-10-|
D|--8-8-8-8-8-8-8-8-7-7-7-7-7-7-7-7-10-10-10-10-|



breakdown:guitar 2
E|--------------------------------------|
B|--------------------------------------|
G|-10-10--10-10--10--11-11-12-12-12-12-|
D|--x-x---x-x---x---x--x--x--x--x--x--|
A|-8-8---8--8---8---9--9--10-10-10-10-|
D|--------------------------------------|



breakdown:guitar 1
E|--------------------------------------------|
B|--/13-15-11-10h11p10----------13---------13-|
G|----------------------10-9-10-----10-9-10---|(x4)
D|--------------------------------------------|
A|--------------------------------------------|
D|--------------------------------------------|



chorus:guitar 1
E|-----------8--8------|
B|--6---6---6--6---6---|
G|---9---9--------9--9-|(x8)
D|---------------------|
A|---------------------|
D|---------------------|



chorus:guitar 2 
E|----------------------------------------------|
B|----------------------------------------------|
G|----------------------------------------------|(x4)
D|--8-8-8-8-8-8-8-8-7-7-7-7-7-7-7-7-10-10-10-10-|
A|--8-8-8-8-8-8-8-8-7-7-7-7-7-7-7-7-10-10-10-10-|
D|--8-8-8-8-8-8-8-8-7-7-7-7-7-7-7-7-10-10-10-10-|



outro:guitar 1 and 2
E|----------------------------------------------|
B|----------------------------------------------|
G|-10-10--10-10--10--10-10-12-12-12-12-10--10~-|
D|--x-x---x-x---x---x--x--x--x--x--x--x---x~--|
A|-8-8---8--8---8---8--8--10-10-10-10-8---8~--|
D|----------------------------------------------|
Comments